>
 >
Shattered Faith

Shattered Faith Guitar Tabs

Bad Religion - Shattered Faith chords, tabs, tablatures, lyrics

Guitar lessons | Add/correct | Request | Top 50 tabs Artists:  A B C D E F G H I J K L M N O P Q R S T U V W X Y Z 0-9

Shattered Faith Guitar Tabs – Bad Religion

CD, Sheet music, Poster

Do you like Shattered Faith? Share with your friends now
TabsTabs v2Tabs v3
BAD RELIGION | shattered faith
        Tabbed Luke Brennan

Guitar Proporties
-----------------
Guitars: 1. Lead and 2. Rhythm
Tuning: Standard (E,A,D,G,B,e)
Amp Setting: Mid Distortion
-----------------

Main Riff (0:00)
Lead
|------------------------------------------------------------------|
|------------------------------------------------------------------|
|-10---9---7-----9-10--9---7-----9-5-----------10-9-5--------------|
|-x----x---x-----x-x---x---x-----x-x-----------x--x-x--------------|
|-8----7---5-----7-8---7---5-----7-3-----------8--7-3--------------|
|------------------------------------------------------------------|

Rhythm
|-----------------------------------------------------------------|
|-----------------------------------------------------------------|
|-7-7-7-7-7-7-7-7-3-3-3-3-3-3-3-3-----------------5-5-5-5-5-5-5-5-|
|-7-7-7-7-7-7-7-7-3-3-3-3-3-3-3-3-3-3-3-3-3-3-3-3-5-5-5-5-5-5-5-5-|
|-5-5-5-5-5-5-5-5-1-1-1-1-1-1-1-1-3-3-3-3-3-3-3-3-3-3-3-3-3-3-3-3-|
|---------------------------------1-1-1-1-1-1-1-1-----------------|

Pre Verse (0:11)
Lead - PALM MUTE
|---------------------------------|
|---------------------------------|
|-2---2-2-2-2-2-2-2-2-2-2-2-2-2-2-|
|-2---2-2-2-2-2-2-2-2-2-2-2-2-2-2-|
|-0---0-0-0-0-0-0-0-0-0-0-0-0-0-0-|
|---------------------------------|

Verse (0:13)
Lead & Rhythm
|---------------------------------|
|---------------------------------|
|-7-7-7-7-7-3-3-3-----------5-5-5-|
|-7-7-7-7-7-3-3-3-3-3-3-3-3-5-5-5-|
|-5-5-5-5-5-1-1-1-3-3-3-3-3-3-3-3-|
|-----------------1-1-1-1-1-------|

Fill in Verse (0:21)
Lead
|---------------------------------|
|---------------------------------|
|-----------------3/5---5---------|
|-----------------3/5---5---------|
|-1-1-0-0---------1-3---3---------|
|---------3-3-1-1-----------------|

Chorus (0:32)
Lead & Rhythm
PLAY MAIN RIFF

Post Chorus (0:53)
Lead & Rhythm
PLAY PRE VERSE

Interlude part 1 (1:46)
Lead
|---------------------------------|
|---------------------------------|
|-7---7---7---7---7---7---7---7---|etc.
|---------------------------------|
|---------------------------------|
|---------------------------------|

Rhythm
VERSE RIFF PALM MUTED

Interlude part 2 ("I had a dream...") (2:20)
Lead
|-----------------------------------------------------------------|
|-----------------------------------------------------------------|
|-7~~~~-----------3~~~~---------------------------5~~~~-----------|
|-7~~~~-----------3~~~~-----------3~~~~-----------5~~~~-----------|
|-5~~~~-----------1~~~~-----------3~~~~-----------3~~~~-----------|
|---------------------------------1~~~~---------------------------|

THAT IS ALL :)
You can figure out the stucture/repeating of riffs etc. pretty easily with the CD

-Luke Brennan, your man of tomorrow since 1933!





Comments


Popular Bad Religion tabs & chords
Dearly Beloved Bass Tabs
Atomic Garden Drum Tabs
52 Seconds Tabs
Atomic Garden Tabs
Progress Tabs
Walk Away 1 Tabs
White Trash Intro Tabs
You 1 Tabs
Atomic Garden Ukulele
Out Of Hand Ukulele


Song lyrics



↑ Back to top | Tablatures and chords are parodies/interpretations of the original songs. You may use it for private study, scholarship, research or language learning purposes only
© 2014 AZChords.com Contact us | Privacy policy | DMCA | Add/correct tabs | Request tabs | Top 50 tabs