» » »

Punk Rock Song Tabs (ver.3)

Artists:  A B C D E F G H I J K L M N O P Q R S T U V W X Y Z # 

Punk Rock Song Tabs (ver.3)

Bad Religion
Rating:
0/5 (0 votes)

Hard to play? Try these video lessons and learn fast.
                bad religion – punk rock song


NOTE: awesome song by a band that exceeds all earthly praise
NOTE: the song sounds a lot better if it is all played with downstrokes


Intro
Guitars 1+2
|---------------------|---------------------|
|---------------------|---------------------|
|-6666-9999-----------|-6666-9999-----------|
|-6666-9999-999-6-666-|-6666-9999-999-6-666-|
|-4444-7777-999-6-666-|-4444-7777-999-6-666-|
|-----------777-4-444-|-----------777-4-444-|


Verse 1
Guitars 1+2
|-------------------------|---------------------|
|-------------------------|---------------------|
|-6666-9999-----11-111111-|-6666-9999-----------|
|-6666-9999-999-11-111111-|-6666-9999-999-6-666-|
|-4444-7777-999--9--9-9-9-|-4444-7777-999-6-666-|
|-----------777-----------|-----------777-4-444-|

|-------------------------------------|
|-------------------------------------|
|----------9999-999----------99-------|
|-7777-777-9999-999-9999-999-99-9-999-|
|-7777-777-7777-777-9999-999-77-9-999-|
|-5555-555----------7777-777----7-777-|


Verse 2 + 3
Guitars 1+2
|-------------------------|---------------------|
|-------------------------|---------------------|
|-6666-9999-----11-111111-|-6666-9999-----------|
|-6666-9999-999-11-111111-|-6666-9999-999-6-666-|
|-4444-7777-999--9--9-9-9-|-4444-7777-999-6-666-|
|-----------777-----------|-----------777-4-444-|

|-------------------------------------------------------|
|-------------------------------------------------------|
|----------9999-999----------99-------------------------|
|-7777-777-9999-999-9999-999-99-9-999-9999-999-99-9-999-|
|-7777-777-7777-777-9999-999-77-9-999-9999-999-99-9-999-|
|-5555-555----------7777-777----7-777-7777-777-77-7-777-|


Chorus
Guitar 1
|------------------|------------------|
|------------------|------------------|
|-666-----999------|-666-----999------|
|-666-777-999-9-99-|-666-777-999-6-66-|
|-444-777-777-9-99-|-444-777-777-6-66-|
|-----555-----7-77-|-----555-----4-44-|

|---------------------------------|-----------------|
|---------------------------------|-----------------|
|---------999-999-----------------|-666-----999-----|
|-777-777-999-999-999-999-999-999-|-666-777-999-999-|
|-777-777-777-777-999-999-999-999-|-444-777-777-999-|
|-555-555---------777-777-777-777-|-----555-----777-|


Guitar 2
|-----16-----16-----16-----1616-|-----16-----16-----16-----16-|
|-1414---1414---1414--14-14-----|-1414---1414---1414--13-13---|
|-------------------------------|-----------------------------|
|-------------------------------|-----------------------------|
|-------------------------------|-----------------------------|
|-------------------------------|-----------------------------|

|---171717-171717-17161616-161616-14-1414-16-17p161414-141414-|
|-17----------------------------------------------------------|
|-------------------------------------------------------------|
|-------------------------------------------------------------|
|-------------------------------------------------------------|
|-------------------------------------------------------------|

|-----16-----16------16-|
|-1414---1414----14-----|
|-----------------------|
|-----------------------|
|-----------------------|
|-----------------------|


Intro
Verse 3
Chorus


Solo
Guitar 1                   |~~TREMOLO PICKING~~|
|-9-9-----9-9-----9-9---9-|-99-1111-1212-1111-99\7/9-|
|-----7-8-----7-8-----7---|--------------------------|
|-------------------------|--------------------------|
|-------------------------|--------------------------|
|-------------------------|--------------------------|
|-------------------------|--------------------------|

|---------------------|-------------------------------------|
|-8----------8--------|------------12-----------------------|
|---9-11-------9-11---|-------9-11----11(12)(11)-9-11-9-11v-|
|--------11--------10-|-10h11-------------------------------|
|---------------------|-------------------------------------|
|---------------------|-------------------------------------|


Guitar 2
|---------------------|---------------------|
|---------------------|---------------------|
|-6666-9999-----------|-6666-9999-----------| x2
|-6666-9999-999-6-666-|-6666-9999-999-6-666-|
|-4444-7777-999-6-666-|-4444-7777-999-6-666-|
|-----------777-4-444-|-----------777-4-444-|


Bridge
Guitars 1 + 2
|------------------(x3)-|----------------------------------------|
|-----------------------|----------------------------------------|
|-6666-9999-----11-1111-|-6666-9999------------------------------|
|-6666-9999-999-11-1111-|-6666-9999-9-999-999-9999-999-9999-9999-|
|-4444-7777-999--9--9-9-|-4444-7777-9-999-999-9999-999-9999-9999-|
|-----------777---------|-----------7-777-777-7777-777-7777-7777-|
  .... .... ...           .... .... .

|-------------------------------------------------------|
|-------------------------------------------------------|
|----------9999-999----------99-------------------------|
|-7777-777-9999-999-9999-999-99-9-999-9999-999-99-9-999-|
|-7777-777-7777-777-9999-999-77-9-999-9999-999-99-9-999-|
|-5555-555----------7777-777----7-777-7777-777-77-7-777-|


Chorus


Outro
Guitars 1 + 2
|-------------------------------------|
|-------------------------------------|
|----------9999-999----------99-------| x2
|-7777-777-9999-999-9999-999-99-9-999-|
|-7777-777-7777-777-9999-999-77-9-999-|
|-5555-555----------7777-777----7-777-|


Guitar 1
|-------------|-------------|-------------|---|
|-------------|-------------|-------------|---|
|-66----99----|-66----99----|-66----99----|-6-|
|-66-77-999-9-|-66-77-996-6-|-66-77-996-6-|-6-|
|-44-77-779-9-|-44-77-776-6-|-44-77-776-6-|-4-|
|----55---7-7-|----55---4-4-|----55---4-4-|---|


Guitar 2
|---16--16--16--16-|---16--16--16--16-|---16--16-----16-|---|
|-14--14--14--14---|-14--14--14--14---|-14--14---14-----|---|
|------------------|------------------|-----------------|-6-|
|------------------|------------------|-----------------|-6-|
|------------------|------------------|-----------------|-4-|
|------------------|------------------|-----------------|---|
            
Hard to play? Try these video lessons and learn fast. | Correct




comments powered by Disqus
↑ Back to top | Tablatures and chords are parodies/interpretations of the original songs. You may use it for private study, scholarship, research or language learning purposes only