» » »

Bad Religion, Punk Rock Song Tabs (ver.2)

Artists:  A B C D E F G H I J K L M N O P Q R S T U V W X Y Z # 

Punk Rock Song Tabs (ver.2)

Bad Religion Tabs
 Rating:
4/5 (4 votes)
Punk Rock Song lessons Tabs too difficult? Try these video lessons and learn fast
1
                This is all the main chords
e|-------------------------
B|-------------------------
G|-6--9---------11---------
D|-6--9--9--6---11--7------
A|-4--7--9--6----9--7------
E|-------7--4-------5------

And this is the solo
e|-9-9-7-7-9-9-7-7-9-9-7-9_---9-9-11-11-12-12-11-11-9-11_--------------------|
B|---------------------------------------------------------------------------|
G|---------------------------------------------------------------------------|
D|---------------------------------------------------------------------------|
A|---------------------------------------------------------------------------|
E|---------------------------------------------------------------------------|

e|---------------------------------------------------------------------------|
B|----------------------------7-7b9-7-----7b9r7------------------------------|
G|-6-9-6---6_---6-9-6------6-9---------9-6-----------------------------------|
D|-------9-----------9-6_----------------------------------------------------|
A|---------------------------------------------------------------------------|
E|---------------------------------------------------------------------------|

*When there's a _ u got to ho;d the note

PLease rate and send your comments or correction
            
Submit corrections

comments powered by Disqus
↑ Back to top | Bad Religion Tabs for Punk Rock Song. Lyrics for acoustic guitar and electric guitar. 1 Tablatures and chords are parodies/interpretations of the original songs. You may use it for private study, scholarship, research or language learning purposes only