>
 >
Anesthesia 1

Anesthesia 1 Guitar Tabs

Bad Religion - Anesthesia 1 chords, tabs, tablatures, lyrics

Guitar lessons | Add/correct | Request | Top 50 tabs Artists:  A B C D E F G H I J K L M N O P Q R S T U V W X Y Z 0-9

Anesthesia 1 Guitar Tabs – Bad Religion

CD, Sheet music, Poster

Do you like Anesthesia 1? Share with your friends now
Bass TabsBass Tabs v2ChordsTabsTabs v2Ukulele
------------------------------------------------------------------------- 
ANESTHESIA - Bad Religion 
------------------------------------------------------------------------- 



All (both) of the guitars in this song are tuned down 1/2 step. I know BR 
doesn't usually do this, so maybe they just recorded & slowed it down 
a little bit manually. If you don't want to retune, an easy way to do this 
would be for the rhythm guitar to tune down to dropped d (6=d) and the lead 
guitar to just tune down the 1st string to Eb and arrange everything 
accordingly. 

Intro: (Both gtrs.) 
|-7-7-7-7--5-5--7-7-7-7--5-5--7-7-7-7--5-5--7-------------------------| 
|-7-7-7-7--5-5--7-7-7-7--5-5--7-7-7-7--5-5--7-------------------------| 
|-8-8-8-8--6-6--8-8-8-8--6-6--8-8-8-8--6-6--8-------------------------| 
|-9-9-9-9--7-7--9-9-9-9--7-7--9-9-9-9--7-7--9-------------------------| 
|-9-9-9-9--7-7--9-9-9-9--7-7--9-9-9-9--7-7--9-------------------------| 
|-7-7-7-7--5-5--7-7-7-7--5-5--7-7-7-7--5-5--7-------------------------| 

Verse stuff: 
(gtr. 1) Over that: 
(gtr. 2) 
|-4-------------------|-0-0-0--0--0--0--0--0--0--0--0-0--0--0-0-0----| 
|-4---9--11--9--11----|-9-9-9-11-11-11-11-12-12-12-12-11-11-9-9-9----| 
|-5---9--11--9--11----|----------------------------------------------| 
|-6---9--11--9--11----|----------------------------------------------| 
|-6---7---9--7---9----|----------------------------------------------| 
|-4-------------------|----------------------------------------------| 
  8x  8x 8x 3x  3x 

|-0-0-0--0--0--0--0--0--0--0--0--0--0--0--0--0-| 
|-9-9-9-11-11-11-11-12-12-12-11-12-14-14-12-11-| 
|----------------------------------------------| 
|----------------------------------------------| 
|----------------------------------------------| 
|----------------------------------------------| 

All verses: 
(Both gtrs.) 
Everybody is talking... 
|----------------------------------------------| 
|--11------------------------------------------| 
|--11------------------------------------------| 
|--11------------------------------------------| 
|---9------------------------------------------| 
|----------------------------------------------| 
  16x 

...But when she looked my way, something mad as hell 

came over me, yeah. 
|----------------------------| 
|----9---11------------------| 
|----9---11------------------| 
|----9---11------------------| 
|----7----9------------------| 
|----------------------------| 
4x 

Chorus: 
Anesthesia, Mona Lisa, I've got a little gun, here comes oblivion 
|---------------------------------------------------------------| 
|-13----------9-------11----------------------9-----------11----| 
|-13----------9-------11----------------------9-----------11----| 
|-13----------9-------11----------------------9-----------11----| 
|-11----------7--------9----------------------7------------9----| 
|---------------------------------------------------------------| 
  7x         7x       7x                      3x          3x 

Anna.........., (1, 2, 3, 4, 5, 6, 7, 8) 
|-7----6-----------------------------------------| 
|-7----6-------8---------------------------------| 
|-8----7-------8---------------------------------| 
|-9----8-------8---------------------------------| 
|-9----8-------6---------------------------------| 
|-7----6-----------------------------------------| 
  8x   8x     16x 

All good children go to heaven! 
|-7------------------------------7-7-7-7--5-5--7-------| 
|-7-----11-------13---11---------7-7-7-7--5-5--7-------| 
|-8-----11-------13---11---------8-8-8-8--6-6--8-------| 
|-9-----11-------13---11---------9-9-9-9--7-7--9-------| 
|-9------9-------11----9---------9-9-9-9--7-7--9-------| 
|-7------------------------------7-7-7-7--5-5--7-------| 
  8x    8x       8x   8x 

Outro: (gtr. 1 w/ gtr. 2 lead stuff) 
Half-time feel 
|-4---0-0-0-0---2---0-0-2-2-4-4-2--------------------------| 
|-4---0-0-0-0---2---0-0-2-2-4-4-2--------------------------| 
|-5---1-1-3-1---3---1-1-3-3-5-5-3--------------------------| 
|-6---2-2-4-2---4---2-2-4-4-6-6-4--------------------------| 
|-6---2-2-4-2---4---2-2-4-4-6-6-4--------------------------| 
|-4---0-0-2-0---2---0-0-2-2-4-4-2--------------------------| 
  5x            5x 

======================================================================





Comments


Popular Bad Religion tabs & chords
Infected 2 Bass Tabs
Leave Mine To Me 3 Bass Tabs
21st Century (Digital Boy) Chords
Hooray For Me.. Chords
Los Angeles Is Burning Chords
Sorrow 3 Chords
Dearly Beloved 1 Tabs
Honest Goodbye 1 Tabs
Part Ii The Numbers Game 1 Tabs
Latch Key Kids Ukulele


Song lyrics



↑ Back to top | Tablatures and chords are parodies/interpretations of the original songs. You may use it for private study, scholarship, research or language learning purposes only
© 2014 AZChords.com Contact us | Privacy policy | DMCA | Add/correct tabs | Request tabs | Top 50 tabs