» » »

Bad Religion, Anesthesia Bass tabs (ver.1)

Artists:  A B C D E F G H I J K L M N O P Q R S T U V W X Y Z # 

Anesthesia Bass tabs (ver.1)

Bad Religion Tabs
 Rating:
4/5 (4 votes)
Anesthesia lessons Tabs too difficult? Try these video lessons and learn fast
1
                Anesthesia Bass Tab By Bad Religion

Intro:

G|---------|    |----|
D|---------|    |----| 
A|---------| X3 |----|
E|-6666-44-|    |-6~-|

G|---------------------------------|
D|---------------------------------|
A|-----------666666-888888-6666-88-| X2
E|-333333333-----------------------|

Verse:

G|------------------------------------|
D|------------------------------------|
A|-8-66-8-66-8-66-8-66---------666666-|
E|---------------------3333333--------|

“Anesthesia, mona lisa...

G|-----------------------------------|
D|-55555555--------------------------|
A|----------666666-88888-66666-88888-|
E|-----------------------------------|

“Anna...

G|------------------------------------------|
D|------------------------------------------|
A|----------------5-55-3-33-1-11-00-1-0-----|
E|-6666666-555555-----------------------3-1-|

“All good children...

G|------------------------------------------|
D|------------------------------------------|
A|--------88888-101010101010-88888----------|
E|-666666---------------------------6666-44-|

By Leandro Haroutune.

Doubts, corrections or suggestions please mail me:
            
Submit corrections

comments powered by Disqus
↑ Back to top | Bad Religion Bass for Anesthesia. Lyrics for acoustic guitar and electric guitar. 1 Tablatures and chords are parodies/interpretations of the original songs. You may use it for private study, scholarship, research or language learning purposes only