» » »

Bad Religion, Along The Way Tabs (ver.1)

Artists:  A B C D E F G H I J K L M N O P Q R S T U V W X Y Z # 

Along The Way Tabs (ver.1)

Bad Religion Tabs
 Rating:
4.3/5 (6 votes)
Along The Way lessons Tabs too difficult? Try these video lessons and learn fast
1
                -----------------------------------------------------------------------------
                             Along the Way - Bad Religion
-----------------------------------------------------------------------------

Tuning: 1/2 a step down

these solos are taken from the live version on the album "tested"

solo 1:

e|---------------------------------------------------------------------------
B|--------------10b--10b-----------------------------------------------------
G|--10b----10b--10b--10b--10-8-10-10-8--------8------------------------------
D|-------------------------------------10-------10-8----8--------------------
A|---------------------------------------------------10---10-8-10-8----------
E|-------------------------------------------------------------------11--8---

e|---------------------------------------------------------------------------
B|---------11-8--------------------------------------------------------------
G|---10b--------10-8---------------------------------------------------------
D|-------------------10~-----------------------------------------------------
A|---------------------------------------------------------------------------
E|---------------------------------------------------------------------------

solo 2:

e|------8---------------8---------------------------------------|
B|---------10p8------------10p8---------------------------------|
G|-10b----------10-10b----------10-10b-r-p8------8~-------------|
D|--------------------------------------------10-----10--10--8--|
A|--------------------------------------------------------------|
E|--------------------------------------------------------------|

e|-----------------------------------------|
B|-----------------------------------------|
G|-8b--------------------------------------|
D|-----10--8h10--8------8------------------|
A|------------------10-----10--8-----------|
E|--------------------------------11b--8---|

e|--------------------------------------------------------------------------|
B|----------------------------------8--10p8----8-10p8-------10-8------------|
G|-------------------------8--10b~----------10--------10b-------------------|
D|---------------8h10-8h10--------------------------------------------------|
A|----------8h10------------------------------------------------------------|
E|-/10--11------------------------------------------------------------------|

e|----------------------------------------------|
B|--10br--8-------------------------------------|
G|-----------10br--8------8br--8br--------------|
D|--------------------10------------10-10~------|
A|----------------------------------------------|
E|----------------------------------------------|

Chords:

e|-----------------------------------------------------|
B|-----------------------------------------------------|
G|---------------------10-10-10-10---------------------|
D|-10-10-10-10-8-8-8-8-10-10-10-10-10-10-10-10-6-6-6-6-|
A|-10-10-10-10-8-8-8-8-8--8--8--8--10-10-10-10-6-6-6-6-|
E|-8--8-8-8-8--6-6-6-6-------------8--8--8--8--4-4-4-4-|

e|---------------------------------|
B|---------------------------------|
G|-8-8-8-8-------------------------|
D|-8-8-8-8-8-8-8-8-10-10-10-10-----|
A|-6-6-6-6-8-8-8-8-10-10-10-10-----|
E|---------6-6-6-6-8--8--8--8------|



| /  slide up
| \  slide down
| h  hammer-on
| p  pull-off
| ~  vibrato
| +  harmonic
| x  Mute note
=============================================================================
            
Submit corrections

comments powered by Disqus
↑ Back to top | Bad Religion Tabs for Along The Way. Lyrics for acoustic guitar and electric guitar. 1 Tablatures and chords are parodies/interpretations of the original songs. You may use it for private study, scholarship, research or language learning purposes only