>
 >
Along The Way

Along The Way Bass Tabs

Bad Religion - Along The Way chords, tabs, tablatures, lyrics

Guitar lessons | Add/correct | Request | Top 50 tabs Artists:  A B C D E F G H I J K L M N O P Q R S T U V W X Y Z 0-9

Along The Way Bass Tabs – Bad Religion

CD, Sheet music, Poster

Do you like Along The Way? Share with your friends now
Bass TabsBass Tabs v2ChordsDrum TabsTabsTabs v2Tabs v3Ukulele

ALONG THE WAY (Bassline)
As recorded by Bad Religion
(From the 1984 EP BACK TO THE KNOWN)

	

Words and Music by Greg Graffin
Arranged by Whoabot/Bad Religion

Gtr I (E A D G) - 'Untitled'

 Intro         Verse
  Q=119
 4/4
  Gtr I
  Wx4           Wx3          H     E  E  E  E
|------------||------------|------------------|
|------------||------------|------10-10-10-10-|
|------------||------------|------------------|
|------------||------------|------------------|


  E E E E E E E E   E E E E E E E E   E E E E E E E E   E E E E E E E E
|-----------------|-----------------|-----------------|------------------||
|-----------------|-----------------|-----------------|------------------||
|-----------------|-8-8-8-8---------|---------6-6-6-6-|------------------||
|-8-8-8-8-6-6-6-6-|---------8-8-8-8-|-4-4-4-4---------|-6-6-6-6-8-8-8-8--||


 Guitar Solo 1
  E E E E E E E E   E E E E E E E E   E E E E E E E E   E E E E E E E E
|-----------------|-----------------|-----------------|------------------||
|-----------------|-----------------|-----------------|------------------||
|-----------------|-8-8-8-8---------|---------6-6-6-6-|------------------||
|-8-8-8-8-6-6-6-6-|---------8-8-8-8-|-4-4-4-4---------|-6-6-6-6-8-8-8-8--||


   Verse
    E E E E E E E E   E E E E E E E E   E E E E E E E E   E E E E E E E E
||------------------|-----------------|-----------------|------------------||
||o-----------------|-----------------|-----------------|-----------------o||
||o-----------------|-8-8-8-8---------|---------6-6-6-6-|-----------------o||
||--8-8-8-8-6-6-6-6-|---------8-8-8-8-|-4-4-4-4---------|-6-6-6-6-8-8-8-8--||


   Guitar Solo 2
    E E E E E E E E   E E E E E E E E   E E E E E E E E   E E E E E E E E
||------------------|-----------------|-----------------|------------------||
||o-----------------|-----------------|-----------------|-----------------o||
||o-----------------|-8-8-8-8---------|---------6-6-6-6-|-----------------o||
||--8-8-8-8-6-6-6-6-|---------8-8-8-8-|-4-4-4-4---------|-6-6-6-6-8-8-8-8--||


   Verse
    E E E E E E E E   E E E E E E E E   E E E E E E E E   E E E E E E E E
||------------------|-----------------|-----------------|------------------||
||o-----------------|-----------------|-----------------|-----------------o||
||o-----------------|-8-8-8-8---------|---------6-6-6-6-|-----------------o||
||--8-8-8-8-6-6-6-6-|---------8-8-8-8-|-4-4-4-4---------|-6-6-6-6-8-8-8-8--||


 Outro
  E E E E E E E E   E E E E E E E E   E E E E E E E E   E E E E H
|-----------------|-----------------|-----------------|--------------|
|-----------------|-----------------|-----------------|--------------|
|-----------------|-8-8-8-8---------|---------6-6-6-6-|--------------|
|-8-8-8-8-6-6-6-6-|---------8-8-8-8-|-4-4-4-4---------|-6-6-6-6-8----|


   >
  +W           +W           +W           +W
|------------|------------|------------|--------*|
|------------|------------|------------|--------*|
|------------|------------|------------|--------*|
|-(8)--------|-(8)--------|-(8)--------|-(8)----*|



Duration Legend
---------------
W - whole; H - half; Q - quarter; E - 8th; S - 16th; T - 32nd; X - 64th; a - acciaccatura
+ - note tied to previous; . - note dotted; .. - note double dotted
Uncapitalized letters represent notes that are staccato (1/2 duration)
Irregular groupings are notated above the duration line
Duration letters will always appear directly above the note/fret number it represents the
duration for.  Duration letters with no fret number below them represent rests.  Multi-
bar rests are notated in the form Wxn, where n is the number of bars to rest for.  Low
melody durations appear below the staff

Tablature Legend
----------------
 h   - hammer-on
 p   - pull-off
 b   - bend
 pb  - pre-bend
 r   - bend release (if no number after the r, then release immediately)
 /\  - slide into or out of (from/to "nowhere")
 s   - legato slide
 S   - shift slide
 - natural harmonic
[n]  - artificial harmonic
n(n) - tapped harmonic
 ~   - vibrato
 tr  - trill
 T   - tap
 TP  - trem. picking
 PM  - palm muting
\n/  - tremolo bar dip; n = amount to dip
 \n  - tremolo bar down
 n/  - tremolo bar up
/n\  - tremolo bar inverted dip
 =   - hold bend; also acts as connecting device for hammers/pulls
 <> - volume swell (louder/softer)
 x   - on rhythm slash represents muted slash
 o   - on rhythm slash represents single note slash

Misc Legend
-----------
 |  - bar
||  - double bar
||o - repeat start
o|| - repeat end
*|  - double bar (ending)
 :  - bar (freetime)
 $  - Segno
 &  - Coda
Tempo markers -  = BPM(8/16=s8/s16), where s8 = swing 8ths, s16 = swing 16ths





Comments


Popular Bad Religion tabs & chords
A World Without Melody Bass Tabs
Fuck Armageddon... This Is Hell! 1 Bass Tabs
Leave Mine To Me 1 Bass Tabs
Drunk Sincerity Chords
Only Gonna Die Chords
Pride And The Pallor Chords
Incomplete 1 Tabs
No Control Tabs
Pride And The Pallor Tabs
Supersonic Tabs


Song lyrics



↑ Back to top | Tablatures and chords are parodies/interpretations of the original songs. You may use it for private study, scholarship, research or language learning purposes only
© 2014 AZChords.com Contact us | Privacy policy | DMCA | Add/correct tabs | Request tabs | Top 50 tabs