» » »

Feel Like Makin' Love Tabs (ver.3)

Artists:  A B C D E F G H I J K L M N O P Q R S T U V W X Y Z # 

Feel Like Makin' Love Tabs (ver.3)

Bad Company
Rating:
0/5 (0 votes)

Hard to play? Try these video lessons and learn fast.
                [-------10-------10---x--x--8--8----8--8----x--x---7----7--7b8----7---7---7]
[-------10-------10---x--x--8--8----8--8----x--x---8----8--8------8---8---8]
[-------11-------11---x--x--9--9----9--9----x--x---7----7--7------7---7---7]
[-------0------------------------------------------0-----------------------]
[--------------------------------------------------------------------------]
[--------------------------------------------------------------------------]

[-------10-------10---x--x--8--8----8--8----x--x---7----7--7b8----7----2---]
[-------10-------10---x--x--8--8----8--8----x--x---8----8--8------8----3---]
[-------11-------11---x--x--9--9----9--9----x--x---7----7--7------7----2---]
[-------0------------------------------------------0-----------------------]
[--------------------------------------------------------------------------]
[--------------------------------------------------------------------------]

[--------------2------------------------3--3----3-----------33--33----3----]
[-------------------3-------3----3------3--3----3-----------33--33----3----]
[----------2------------------2---------0--0----0---------0-----------0----]
[-----0--------------------------------------------------------------------]
[------------------------------------3---------------0b2----------0b2------]
[---------------------------------------------3--------------------------3-]

[-----------------------------------3--3-----------3---------------3--3----]
[--------------3----3--3------3-----3--3--------3-----------3------3--3----]
[---------0b2-------------2---------0--0--------0------------------0--0----]
[-----0--------------------------------------0---------------------------0-]
[--------------------------------3----------------------------0b2----------]
[-----------------------------------------3--------------------------------]

chorus:
                  repeat this part three times
[------------------------3-------------------------------------------------]
[---------------------------------3---------------3--------------3---------]
[-------------------------------------------------2--------------2---------]
[-----------------0-------------------------0-----0---------0----0---------]
[----------2-----------------------------3---------------3-----------------]
[---3----------------------------------------------------------------------]
                                                      
[------------------3------3-|--------------------3------3-----3------------]
[-----------3------3------3-|------------3-------3------3-----3------------]
[-----------2------0------0-|------------2-------0------0-----0------------]
[------0----0------2------x-|-------0----0-------2------2-----x---------0--]
[---3--------------3------2-|----3---------------3------3-----2---------0--]
[---------------------------|-------------------------------------3b----0--]

ok.that's it,except for the solo.I might put the solo on there but not right
now.thats the right way to play this song,so..rock on!!!oh and i skipped part
of the verse cause it's just d,c,and g5 in that order,so you can figure it out.
            
Hard to play? Try these video lessons and learn fast. | Correct




comments powered by Disqus
↑ Back to top | Tablatures and chords are parodies/interpretations of the original songs. You may use it for private study, scholarship, research or language learning purposes only