>
 >
Feel Like Makin' Love 1

Feel Like Makin' Love 1 Guitar Tabs

Bad Company - Feel Like Makin' Love 1 chords, tabs, tablatures, lyrics

Guitar lessons | Add/correct | Request | Top 50 tabs Artists:  A B C D E F G H I J K L M N O P Q R S T U V W X Y Z 0-9

Feel Like Makin' Love 1 Guitar Tabs – Bad Company

CD, Sheet music, Poster

Do you like Feel Like Makin' Love 1? Share with your friends now
Bass TabsBass Tabs v2ChordsTabsTabs v2Tabs v3
Tunning: Standard


Music by Paul Rodgers & Mick Ralphs

    E A D G b e
D:  x x 0 2 3 2
C:  x 3 2 0 1 0
G5: 3 x 0 0 3 3

Gtr I   - Rhythm Steel String Acoustic
Gtr II  - Rhythm Clean Electric
Gtr III - Rhythm w/distortion
Gtr IV  - Lead Clean Electric (2 gtrs arr. for 1)
Gtr V   - Lead Clean Electric
Gtr VI  - Lead w/distortion & Delay


Intro:
 
 4/4
  Gtr I

|-10--10-x-x-8-8-8-8-x-x-|-7--7-7h8-7-(7)-7--7---|
|-10--10-x-x-8-8-8-8-x-x-|-8--8---8-8-(8)-8--8---|
|-11--11-x-x-9-9-9-9-x-x-|-7--7---7-7-(7)-7--7---|
|--0---------------------|-0---------------------|
|------------------------|-----------------------|
|------------------------|-----------------------|


|-10--10-x-x-8-8-8-8-x-x-|-7-7h8-7-2-(2)----||
|-10--10-x-x-8-8-8-8-x-x-|-8---8-8-3-(3)----||
|-11--11-x-x-9-9-9-9-x-x-|-7---7-7-2-(2)----||
|--0---------------------|-0----------------||
|------------------------|------------------||
|------------------------|------------------||


Verses:
    
Gtr II  
    D                    C       G5                C
    
Gtr I
||------2------------------3-3-|---3---------3-3-----3-----|
||o--------3---(3)-3---3---3-3-|---3---------3-3-----3-----|
||----2--------------2-----0-0-|---0-----0-----------0-----|
||--0--------------------------|---------------------------|
||o----------------------3-----|-----0h2---------0h2---3---|
||-----------------------------|-3-------------------------|
 |-Rhy Fig 1 (both Gtrs)

  D                  C       G5                   C       x3 then
|----------------------3-3-|--------3---(3)-------3-3------||
|--------3---3-3---3---3-3-|-----3----------3-----3-3-----o||
|----0h2---------2-----0-0-|-----0----------------0-0------||
|-0------------------3-----|---0----------------------0----||
|--------------------------|------------------0h2---------o||
|--------------------------|-3-----------------------------||
                                             end Rhy Fig 1-|

 
   G5
|---------3---(3)--------------||
|-----------------3----(3)-----||
|------------------------------||
|------0-----------------------||
|----2-------------------------||
|--3---------------------------||
|-Rhy Fill 1 (both Gtrs)

Chorus:
 
   Gtr III
    PM|      PM|        PM|            x3  PM|      PM|
||--------------------|----------3--3---||--------------------|
||o-------3--------3--|-------3--3--3--o||-------3--------3---|
||--------2--------2--|-------2--0--0---||-------2--------2---|
||----0---0----0---0--|---0---0--2------||---0---0----0---0---|
||o-3--------3--------|-3--------3--2--o||-3--------3---------|
||--------------------|-----------------||--------------------|
 |-Rhy Fig 2 (includes repeats)

                                                D.S.
 2/4        4/4
  PM|
|----------|-3--3--3---------|----------|------------||
|-------3--|-3--3--3---------|----------|------------||
|-------2--|-0--0--0---------|----------|------------||
|---0---0--|-2--2------------|-0--------|-(0)--------||
|-3--------|-3--3--2---------|-0--------|-(0)--------||
|----------|----------3b3.5--|-0--------|-(0)--------||
               end Rhy Fig 2-|


Interlude:

  w/Rhy Fig 1 x2
    Gtr IV
   
||----------------------------------|-------------------------------|
||o---------------------------------|-8----------------------7-8----|
||--7------------------------7--7---|------------------------7-7h9--|
||--7-----------------------12-14---|-9-----------------------------|
||o---------------------------------|-------------------------------|
||----------------------------------|-------------------------------|
|  
|
|   Gtr V
|
||----------------------------------|-------------------------------|
||o---------------------------------|-------------------------------|
||----------------------------------|--------------------------7----|
||------------------------------7---|-5--------------------7s9------|
||o-5---------------------7s=9------|-------------------------------|
||----------------------------------|-------------------------------|



|----------------------------------|
|-/12-------------------10h12p10---|
|--11--------------------9---------|
|----------------------------------|
|----------------------------------|
|----------------------------------|
| 
|
| 
|----------------------------------|
|----------------------------------|
|---7------------------------------|
|-----------------------10---------|
|----------------------------------|
|----------------------------------|


 1.                                2.
|-------------------------------||-------------------------------||
|-8----------------------------o||--8----------------------------||
|-7-----------------------------||--7----------------------------||
|-------------------------------||-------------------------------||
|------------------------------o||-------------------------------||
|-------------------------------||-------------------------------||
|
|
| 
|-------------------------------||-------------------------------||
|------------------------------o||-------------------------------||
|-------------------------------||--7----------------------------||
|-9-----------------------------||-------------------------------||
|------------------------------o||-------------------------------||
|-------------------------------||-------------------------------||


Verse:

Gtr II  
    D                    C       G5                C
    
Gtr I
||------2------------------3-3-|---3---------3-3-----3-----|
||o--------3---(3)-3---3---3-3-|---3---------3-3-----3-----|
||----2--------------2-----0-0-|---0-----0-----------0-----|
||--0--------------------------|---------------------------|
||o----------------------3-----|-----0h2---------0h2---3---|
||-----------------------------|-3-------------------------|
 |-Rhy Fig 1 (both Gtrs)

  D                  C       G5                   C       x3 then
|----------------------3-3-|--------3---(3)-------3-3------||
|--------3---3-3---3---3-3-|-----3----------3-----3-3-----o||
|----0h2---------2-----0-0-|-----0----------------0-0------||
|-0------------------3-----|---0----------------------0----||
|--------------------------|------------------0h2---------o||
|--------------------------|-3-----------------------------||
                                             end Rhy Fig 1-|

 
   G5
|---------3---(3)--------------||
|-----------------3----(3)-----||
|------------------------------||
|------0-----------------------||
|----2-------------------------||
|--3---------------------------||
|-Rhy Fill 1 (both Gtrs)
         

Outro Guitar Solo:
 
 W/Rhy Fig 2 till end
 
Gtr VI
                          ~~~~~~~~~~~
|-------15b17==(15)r--13--------------|----------------|
|------------------------15----(15)\--|----------------|
|-------------------------------------|----------------|
|-------------------------------------|----------------|
|-------------------------------------|----------------|
|-------------------------------------|----------------|


                                            ~~~~
|------------------10---------------------------------------|
|-----13b15==(13)r----13b15==(13)r-13b15==(13)---(13)r\-----|
|-----------------------------------------------------------|
|-----------------------------------------------------------|
|-----------------------------------------------------------|
|-----------------------------------------------------------|


 2/4        4/4
                                                       ~~~
|----------|-----------------|-------15b17==(15)r--13---------------|
|----------|-----------------|------------------------15\-----------|
|----------|-----------------|--------------------------------------|
|----------|-----------------|--------------------------------10h12-|
|----------|-----------------|--------------------------------------|
|----------|-----------------|--------------------------------------|


                                                    ~~~
|-----------------------------------------------------|
|-----------------------------------------------------|
|-10-12b14==(12)r(12)p10-12-12-10-12---------------10-|
|--------------------------------------------10h12----|
|------------------------------------8h10s12----------|
|-----------------------------------------------------|


 ~~~~
|--------------------------13----|
|-----------------------------15-|
|--------------------------------|
|-12---(12)\-/12\----------------|
|--------------------------------|
|--------------------------------|


|-----------13-----------|-15b17-r15-----15b17-r15--15b17-r15-----15b17-r15|
|-(15)\--------15--------|-------------------------------------------------|
|------------------------|-------------------------------------------------|
|------------------------|-------------------------------------------------|
|------------------------|-------------------------------------------------|
|------------------------|-------------------------------------------------|


                                                      ~~~
|-13-15------------------|----------------------------------|
|-------15-(15)\---------|----------------------------------|
|------------------------|-------12b14==(12)r--10-12--------|
|------------------------|---------------------------12-----|
|------------------------|----------------------------------|
|------------------------|----------------------------------|


 2/4                          4/4
    ~~~~
|----------------------------|-----------------------------|
|----------------------------|-----------------------------|
|----------------------------|-----------------------------|
|-(12)---10h12---------------|---------------10s12---------|
|--------------12s10p8-10-10-|------8-10s12----------------|
|----------------------------|-8h10------------------------|


|------------------------------------------|
|--------------------------------------0-0-|
|-----10b10.5--------------10b10.5---------|
|-------------12-(12)\-------------12\-----|
|------------------------------------------|
|------------------------------------------|


|--------------------------------------------------|
|-----10b10.5----10-x-12-12-12-12b13==(12)r(12)-12-|
|-----10b10.5----10-x-12-12-12-12b13==(12)r(12)-12-|
|-------------12-----------------------------------|
|--------------------------------------------------|
|--------------------------------------------------|


                    PM------|
|-------------------------------------------|
|-------10b10.5----------------10b10.5------|
|-------10b10.5----------------10b10.5------|
|-10h12---------12-10-10---------------12---|
|------------------------12-12--------------|
|-------------------------------------------|


|-------10--------------------------------------------------------------|
|----12-10-------10-12-12-----------------------------------------------|
|----12-10h11----10-12-12-12b14==(12)r(12)b14==(12)r(12)-10----10-10-10-|
|-12----------12--------------------------------------------12----------|
|-----------------------------------------------------------------------|
|-----------------------------------------------------------------------|


|----------------------------------------------------|
|-------10s13-13-13-13-13-13-13-13-13-13-13-13-13-13-|
|-12p11-11s14-14-14-14-14-14-14-14-14-14-14-14-14-14-|
|----------------------------------------------------|
|----------------------------------------------------|
|----------------------------------------------------|


|-------------------13-15-15b17==(15)r(15)p13-15b17==(15)r---15b17==(15)r--|
|-13-13-13-13-13h15--------------------------------------------------------|
|-14-14-14-14--------------------------------------------------------------|
|--------------------------------------------------------------------------|
|--------------------------------------------------------------------------|
|--------------------------------------------------------------------------|


|-15b17r15--15b17r15-15b17r15-15b17r15-15b17r15--15b17r15-15-13-14-15-|
|---------------------------------------------------------------------|
|---------------------------------------------------------------------|
|---------------------------------------------------------------------|
|---------------------------------------------------------------------|
|---------------------------------------------------------------------|


 2/4                       4/4
                                   ~~
|-13-14-15-13-14-15-13-14-|-15-13----------------------------------10--|
|-------------------------|-------15---(15)\-----------10---10---------|
|-------------------------|--------------------12b14==(12)r------------|
|-------------------------|--------------------------------------------|
|-------------------------|--------------------------------------------|
|-------------------------|--------------------------------------------|


|-----------------------------------------------------------|
|---------10-------10----------9-------------9-------(9)\---|
|-12b14==(12)r--------11b13==(11)r--11b13==(11)-----(11)r\--|
|-----------------------------------------------------------|
|-----------------------------------------------------------|
|-----------------------------------------------------------|


|----------------------------15b17=(15)r-|-15b17=(15)r---13-15-------------|
|10--10-10-10-10-10-10-10-10-------------|------------15\-------15-15b18-15|
|10--10-10-10-10-10-10-10-10-------------|---------------------------------|
|----------------------------------------|---------------------------------|
|----------------------------------------|---------------------------------|
|----------------------------------------|---------------------------------|


                       |------3------|        |------3------|
|------------------------------------------------------------------------|
|-(15)---15b18==(15)r(15)b18==(15)r(15)b18==(15)r(15)b18==(15)r(15)-15---|
|------------------------------------------------------------------------|
|------------------------------------------------------------------------|
|------------------------------------------------------------------------|
|------------------------------------------------------------------------|


|--------------------------------------------|
|-----10b10.5-------------------13-13-13-----|
|-----10b10.5----------10-11s14----------14\-|
|-------------12-10-12-----------------------|
|--------------------------------------------|
|--------------------------------------------|


                                 |---3----|
|------------------------------------------------------------|
|------------------------------------------------------------|
|--------------------10-12b14==(12)r(12)p10-12---------------|
|--------------10-12---------------------------12-10h12------|
|------8-10s12------------------------------------10h12-10s9-|
|-8h10-------------------------------------------------------|


|------------------------------------------|
|------------------------------------------|
|------------------------------------------|
|------------------------------------------|
|------------------------------------------|
|---8-8h10-10-10-8h10-8h10-8h10-10-10-8-8--|


 2/4                    4/4
|----------------------|--------------------------------|
|----------------------|--------------------------------|
|----------------------|--------------------------------|
|----------------------|----10---10s12-12---------(12)s=|
|-----------------8-10s|=12-----------------------------|
|-8h10-10-10-8h10------|--------------------------------|


|--------15b17==(15)r--13---------------|
|------------------------------15-(15)--|
|---------------------------------------|
|-5/------------------------------------|
|---------------------------------------|
|---------------------------------------|


                                   ~~
|------15b17==(15)r---13-------------------------*|
|-(15)-------------------15p13\---------x-x-x-12-*|
|---------------------------------10----x-x-x-12-*|
|------------------------------------12----------*|
|------------------------------------------------*|
|------------------------------------------------*|





Comments


Popular Bad Company tabs & chords
Feel Like Makin' Love 1 Bass Tabs
Rock And Roll Fantasy Chords
Seagull 2 Chords
Every Thing I Need Tabs
Feel Like Makin' Love Tabs
Good Lovin Gone Bad Complete Tabs
Holy Water Tabs
Movin' On Tabs
Shooting Star Tabs
Love Me Somebody Ukulele


Song lyrics



↑ Back to top | Tablatures and chords are parodies/interpretations of the original songs. You may use it for private study, scholarship, research or language learning purposes only
© 2014 AZChords.com Contact us | Privacy policy | DMCA | Add/correct tabs | Request tabs | Top 50 tabs