>
 >
Bad Company

Bad Company Guitar Tabs

Bad Company - Bad Company chords, tabs, tablatures, lyrics

Guitar lessons | Add/correct | Request | Top 50 tabs Artists:  A B C D E F G H I J K L M N O P Q R S T U V W X Y Z 0-9

Bad Company Guitar Tabs – Bad Company

CD, Sheet music, Poster

Do you like Bad Company? Share with your friends now
Bass TabsChordsChords v2Chords v3Chords v4Chords v5Chords v6TabsTabs v2Tabs v3Tabs v4
-----------------------------------------------------------------------------
-----------------------------------------------------------------------------

Intro
(possibly bass but sounds fine played on guitar as such)
e|---------------------------------|
B|---------------------------------|
G|---------------------------------|
D|---------------------------------|
A|--pb9b8b9------------pb9b8-9/11--|
E|---------------------------------|

The following notes are very faintly heard and start right before the intro bass/
guitar notes shown above.
e|----------------------11\-----------|
B|----------11~~~~~~~~~~--------11\9--|
G|-8~~~~~~~~--------------------------|
D|------------------------------------|
A|------------------------------------|
E|------------------------------------|

Verse 1 (again all notes are very faint over piano and bass)
"Company always on the run"
e|------------------------------------|
B|-------------------------11---------|
G|----------------------------10-8----|
D|---------------------------------8--|
A|------------------------------------|
E|------------------------------------|
"Destiny is a rising sun"
e|------------------------------------|
B|-------------------------11---------|
G|------8\6------------------8--------|
D|----------------------------8-------|
A|------------------------------------|
E|------------------------------------|
"I was born six-gun in my hand"
e|-----------------------------------------|
B|-------------------------------7-7h9(9)--|
G|----------------------------6/8-8--------|
D|-----------------------------------------|
A|-----------------------------------------|
E|-----------------------------------------|
"Behind a gun I'll make my final stand"
e|-----------------------------------------|
B|----------------11---11------------------|
G|------------------10---------------------|
D|-----------------------------------------|
A|-----------------------------------------|
E|-----------------------------------------|

Chorus (with light distortion/overdrive)
"That's why they call me............bad company...
e|------------------------------------------------|
B|------------------------------------------------|
G|-----------------------------8----6-------------|
D|-----------------------------8-4--6----------6--|
A|-----------------------------6-4--4----------6--|
E|-------------------------------2--4----------4--|
...and I can't deny."                  "Bad company...
e|---------------------------------------------------------|
B|---------------------------------------------------------|
G|--------------------8--6--8----8-8-----------------------|
D|--------------------8--6--8----8-8--4-----------------6--|
A|--------------------6--4--6----6-6--4-----------------6--|
E|------------------------------------2-----------------4--|
...till the day I die.........till the day I die.......till the day I die."
e|--------------------------------------------------------------------------|
B|--------------------------------------------------------------------------|
G|---------------------8--6--8-------------------8--6--8--------------------|
D|---------------------8--6--8-------------------8--6--8--------------------|
A|---------------------6--4--6-------------------6--4--6--------------------|
E|--------------------------------------------------------------------------|

Verse 2
                       "Rebel souls deserters we are called" 
e|-----------------------------------------------------------|
B|----11-----------------------------------------------------|
G|---8-------------------------------------------------------|
D|--8--------------------------------------------------------|
A|-------6-8-9-11-9\8(8)-------------------------------------|
E|-----------------------------------------------------------|
"Chose a gun and threw away the sun"
e|-----------------------------------------------------|
B|----------------------------------11---------11------|
G|------------------------------------10p8-------10p8--|
D|-----------------------------------------------------|
A|-----------------------------------------------------|
E|-----------------------------------------------------|
"Now these towns they all know our name.
Six-gun sound is our claim to fame.  I can hear them say..."
e|------------------------------------------------------------|
B|----------11(11)\-------------------------------------------|
G|------------------------------------------------------------|
D|------------------------------------------------------------|
A|------------------------------------------------------------|
E|------------------------------------------------------------|

Chorus (same as 1st time)

Pre-solo (right after the last 3 chords of chorus this leads to solo)
e|--------------------|
B|--------------------|
G|--3-6--8----8-6(6)--|
D|--3-6--8----8-6(6)--|
A|--1-4--6----6-4(4)--|
E|--------------------|

Solo (only 1st lick, may not be perfect but it's close enough to start with)
e|--------------------------------------|
B|--------------------------11p9--------|
G|---------------6----6-8/11----11p8~~~~|
D|-----4----4-6/8--6/8------------------|
A|--4/6--4/6----------------------------|
E|--------------------------------------|

Chorus (there are a couple alterations leading up to outro)
e|-----------------------------------------------------------------|
B|-----------------------------------------------------------------|
G|--8----6------------------------8--6--8----8-8-------------------|
D|--8-4--6------------6-----------8--6--8----8-8--4-------------6--|
A|--6-4--4------------6-----------6--4--6----6-6--4-------------6--|
E|----2--4------------4---------------------------2-------------4--|

e|-----------------------------------------------------------------|
B|-----------------------------------------------------------------|
G|--8--6--8----6/8-6/8----8--6--8----8----6------------------------|
D|--8--6--8----6/8-6/8----8--6--8----8-4--6-------------6----------|
A|--6--4--6----4/6-4/6----6--4--6----6-4--4-------------6----------|
E|-------------------------------------2--4-------------4----------|
                                                        
e|-----------------------------------------------------------------|
B|-----------------------------------------------------------------|
G|--8--6--8----8------------------8--6--8------8--6--8-------------|
D|--8--6--8----8-4--6------4------8--6--8------8--6--8-------------|
A|--6--4--6----6-4--6------4------6--4--6------6--4--6-------------|
E|---------------2--4------2---------------------------------------|

Last part of chorus (3 chords) keeps repeating through the outro solo.

I may attempt to tab the solos later.  Feedback is welcome.


| pb pre-bend
| b  bend
| /  slide up
| \  slide down
| h  hammer-on
| p  pull-off
| ~  vibrato
=============================================================================





Comments


Popular Bad Company tabs & chords
Shooting Star Bass Tabs
Bad Company 3 Chords
Feel Like Making Love Chords
If You Needed Somebody Chords
Seagull 3 Chords
Shooting Star Chords
Good Lovin' Gone Bad Tabs
Rock 'n' Roll Fantasy Tabs
Feel Like Makin Love Ukulele
Love Me Somebody Ukulele


Song lyrics



↑ Back to top | Tablatures and chords are parodies/interpretations of the original songs. You may use it for private study, scholarship, research or language learning purposes only
© 2014 AZChords.com Contact us | Privacy policy | DMCA | Add/correct tabs | Request tabs | Top 50 tabs