» » »

Bad Company, Can't Get Enough Tabs (ver.3)

Artists:  A B C D E F G H I J K L M N O P Q R S T U V W X Y Z # 

Can't Get Enough Tabs (ver.3)

Bad Company Tabs
 Rating:
4/5 (4 votes)
Can't Get Enough lessons Tabs too difficult? Try these video lessons and learn fast
                Can't Get Enough
Bad Company
Bad Co. 1974

Tuning: C C G C E C

I suggest you re-string your top
two strings (B&E) with really light guages
and string your low E with 
a really heavy bottom one.




Intro


C|----------------------------|
E|-0----------------5-----5-5-|
C|-0--------10--10--5-----6-5-|
G|-0--------10--10--5-----7-5-|
C|-0--------10--10--5-----5-5-|
C|----------------------------|x2


What follows is my interpretation
but riff on them tastefully!



Verse


C|-------------------------5---5-5-5--------------------|
E|-----------------5-------6---5-5-6------------------5-|
C|-0--------10--10-5-------5---5-5-5----0-----10-10---5-|
G|-0--------10--10-5-------5---5-5-5----0-----10-10---5-|
C|-0--------10--10-5-----5---5-5-5-5--0-------10-10---5-|
C|------------------------------------------------------|

C|---5---5---5-|
E|---6---5---6-|
C|---5---5---5-|
G|-5-5-5-5-5-5-|
C|-5---5---5---|
C|-------------|

C|-------------------------5---5-5-5--------------------|
E|-----------------5-------6---5-5-6------------------5-|
C|-0--------10--10-5-------5---5-5-5----0-----10-10---5-|
G|-0--------10--10-5-------5---5-5-5----0-----10-10---5-|
C|-0--------10--10-5-----5---5-5-5-5--0-------10-10---5-|
C|------------------------------------------------------|

C|---5-----------7---7---7-------------------|
E|---6-----------7---7---7-------------------|
C|---5---5-5-5/7-7---7---7-7-7-10-----5--3-3-|
G|-5-5-5-5-5-5/7-7-7-7-7-7-7-7-10-----5--3-3-|
C|-5---5-5-5-5/7---7---7---7-7-10-----5--3-3-|
C|-------------------------------------------|



Chorus


E|-----0---0-----------5---5-5-5--------0---0-------|
B|-----1-3-0-----------6---5-5-6--------1-3-0-------|
G|-----0---0-----------5---5-5-5-0------0---0-------|
D|-0---2---0---0---5---5---5-5-5-0--0---2---0---0---|
A|-0-0-------0-0-0-5-5---5----------0-0-------0-0-0-|
E|--------------------------------------------------|

E|-----5---5-5-5-------0---0-----------5---5-5-5-7-7-7-7-7-|
B|-----6---5-5-6-------1-3-0-----------6---5-5-6-7-8-8-8-7-|
G|-----5---5-5-5-0-----0---0-----------5---5-5-5-7-7-7-7-7-|
D|-5---5---5-5-5-0-0---2---0---0---5---5---5-5-5-7-9-9-9-7-|
A|-5-5---5---------0-0-------0-0-0-5-5---5-----------------|
E|---------------------------------------------------------|


Solo Chords


|C Bb| |F| |C Bb| |F| 

|C Bb| |F| |C Bb| |F| 

|G| |G| |Bb| |F Eb|


|C| |F| |C| |F|

|C| |F| |G C| |G|


|G| |G| |C| |F|

|C| |F| |C| |F|

|G| |G| 


|C| |F| |C| |F|

|C| |F| |G C| |G|


|C| |F| |C| |F|

|C| |F| |G C| |G|


|C| |C Bb| |F Bb| |F|

|C| |C Bb| |F C| |F|
            
Submit corrections

comments powered by Disqus
↑ Back to top | Bad Company Tabs for Can't Get Enough. Lyrics for acoustic guitar and electric guitar. Tablatures and chords are parodies/interpretations of the original songs. You may use it for private study, scholarship, research or language learning purposes only