>
 >
Cant Get Enough Complete

Cant Get Enough Complete Guitar Tabs

Bad Company - Cant Get Enough Complete chords, tabs, tablatures, lyrics

Guitar lessons | Add/correct | Request | Top 50 tabs Artists:  A B C D E F G H I J K L M N O P Q R S T U V W X Y Z 0-9

Cant Get Enough Complete Guitar Tabs – Bad Company

CD, Sheet music, Poster

Do you like Cant Get Enough Complete? Share with your friends now
Tabs
CAN'T GET ENOUGH
                           As recorded by Bad Company
                        (From the 1974 Album BAD COMPANY)

Words and Music by Mick Ralphs

Gtr I (E A D G B E) - 'Untitled'
Gtr II (E A D G B E) - 'Untitled'
Gtr III (E A D G B E) - 'Untitled'

   Intro
    Moderate Rock Q.=126
   12/8
    Gtrs I, II
||---------------|----------------------|
||o--------------|----------11--11---10-|
||--5------------|-(5)------10--10---10-|
||--5------------|-(5)-------8---8---10-|
||o-3------------|-(3)-------8---8----8-|
||---------------|----------------------|


|---------------------------|------------------||
|-(10)------(10)---(10)--11-|---10----(10)----o||
|-(10)------(10)---(10)--10-|---10----(10)-----||
|-(10)------(10)---(10)---8-|---10----(10)-----||
|--(8)-------(8)----(8)---8-|----8-----(8)----o||
|---------------------------|------------------||


 1st Verse
  Gtr I
|--------------------|------------------------------|
|------------11---10-|-(10)--x-10---x-10--10-11-----|
|------------10---10-|-(10)--x-10---x-10--10-10-----|
|---------8-------10-|-(10)--x-10---x-10--10-10-----|
|-10------8--------8-|--(8)--x--8---x--8---8--8-----|
|--8-----------------|------------------------------|
|
| Gtr II
|                               PM-----------|
|--------------------|------------------------------|
|------------11---10-|-(10)-------------------------|
|------------10---10-|-(10)-------------------------|
|---------8-------10-|-(10)----12--10-10--10-12-----|
|-10------8--------8-|--(8)-----8---8--8---8--8--10-|
|--8-----------------|----------------------------8-|


|------------------------|----------------------------------|
|---------------------10-|-------x-11------10-------11------|
|---------------------10-|-------x-10------10-------10------|
|---------------------10-|-------x-10------10-------10------|
|--10-------8--8-------8-|-------x--8-------8--------8------|
|---8-------6--6---------|----------------------------------|
|
|--------------6-(6)-----|----------------------------------|
|--------------6-(6)--10-|-(10)----11--10-(10)--10-(10)-----|
|---------------------10-|-(10)----10--10-(10)--10-(10)-----|
|---------------------10-|-(10)----10--10-(10)--10-(10)-----|
|-(10)------8----------8-|--(8)-----8---8--(8)---8--(8)-----|
|--(8)------6------------|----------------------------------|


|--------------------|------------------------------|
|------------11---10-|-(10)--x-10---x-10--10-11-----|
|------------10---10-|-(10)--x-10---x-10--10-10-----|
|---------8-------10-|-(10)--x-10---x-10--10-10-----|
|-10------8--------8-|--(8)--x--8---x--8---8--8-----|
|--8-----------------|------------------------------|
|
|                               PM---------------|
|--------------------|------------------------------|
|--------------------|------------------------------|
|--------------------|------------------------------|
|-----------------10-|-(10)----12--10-10--10-10--10-|
|-10------8---8----8-|--(8)-----8---8--8---8--8---8-|
|--8------6---6------|------------------------------|


|--------------------|---------------------------------||
|-----------------10-|--------x-11---10-----11---------||
|-----------------10-|--------x-10---10-----10---------||
|-----------------10-|--------x-10---10-----10---------||
|-10------8---8----8-|--------x--8----8------8---------||
|--8------6---6------|---------------------------------||
|
|--------------------|---------------------------------||
|------------11------|---------------------------------||
|------------10------|---------------------------------||
|---------8-------10-|-(10)--10-12---10--10-----10s====||
|-10------8--------8-|--(8)---8--8----8---8------8s====||
|--8-----------------|---------------------------------||


  Gtrs I, II
|-------------------|--------------------|
|-------------------|--------------------|
|------12------12---|-(12)---12------x---|
|-12---10------12---|-(12)---12------x---|
|-10---10------10---|-(10)---10------x---|
|-------------------|--------------------|


|---------------|----------------------||
|-11------------|-11------(8)---(8)----||
|-10------------|-10-------8-----8-----||
|--8------------|--8-------8-----8-----||
|--8------------|--8-------6-----6-----||
|---------------|----------------------||


 1st Chorus
  Gtr I
                    PM-|
|-------------------------|---------------------------|
|----------6---5----------|--------11---10--10-11-----|
|----------5---5----------|--------10---10--10-10-----|
|----------7---5----------|-10-----10---10--10-10-----|
|-10---------------10--10-|--8------8----8---8--8--10-|
|--8----------------8---8-|-------------------------8-|
|
| Gtr II
|  PM-|             PM----------|
|-------------------------|---------------------------|
|--------5h6---5----------|--------11-----------------|
|--------5-5---5----------|--------10-----------------|
|--------5h7---5----------|-10--10-10---10--10-12-----|
|-10--10-----------10--10-|--8---8--8----8---8--8--10-|
|--8---8------------8---8-|-------------------------8-|


                          PM----------|
|-------------------------------|---------------------------|
|-----------6------5------------|--------11---10---11-------|
|-----------5------5------------|--------10---10---10---9---|
|-----------7------5------------|-10--10-10---10---10--10---|
|-(10)-------------------10--10-|--8---8--8----8----8--10---|
|--(8)--------------------8---8-|-----------------------8---|
|
|        PM---------------------------|
|-------------------------------|---------------------------|
|-------------------------------|--------11---10---11-------|
|-------------------------------|--------10---10---10-------|
|-------------------------------|-10--10-10---10---10-------|
|-(10)--10-12--10-10--10-10--10-|--8---8--8----8----8--10---|
|--(8)---8--8---8--8---8--8---8-|-----------------------8---|


                                  PM------|
|-----------------------------------|-----------------------|
|-----------------------------------|--------11---10--------|
|--(9)------------------------------|--------10---10--------|
|-(10)------------------------------|-10--10-10---10--------|
|-(10)--10-12--12----10----(10)--10-|--8---8--8----8--------|
|--(8)---8--8---8-----8-----(8)---8-|-----------------------|
|
|-----------------------------------|-----------------------|
|-----------------------------------|--------11---10--------|
|-----------------------------------|--------10---10--------|
|-----------------------------------|-10--10-10---10-----10s|
|-(10)--10-12--10-10----10--10---10-|--8---8--8----8------8s|
|--(8)---8--8---8--8-----8---8----8-|-----------------------|


|-----------------------------|-------||
|------------13---13-(13)--12-|-12----||
|-12---(12)--14---12-(12)--12-|-12----||
|-12---(12)--10---14-(14)--12-|-12----||
|-10---(10)-------10-(10)--10-|-10----||
|-----------------------------|-------||
|
|-----------------------------|-------||
|------------13---13-(13)--12-|-12----||
|------------12---12-(12)--12-|-12----||
|-12---(12)--14---14-(14)--12-|-12----||
|-10---(10)--10---10-(10)--10-|-10----||
|-----------------------------|-------||


  Gtrs I, II
|----------------|----------------------|
|-(5)------------|-(5)------11--11---10-|
|--5-------------|-(5)------10--10---10-|
|--5-------------|-(5)-------8---8---10-|
|--3-------------|-(3)-------8---8----8-|
|----------------|----------------------|


|---------------------------|-----------------||
|-(10)------(10)---(10)--11-|---10----(10)----||
|-(10)------(10)---(10)--10-|---10----(10)----||
|-(10)------(10)---(10)---8-|---10----(10)----||
|--(8)-------(8)----(8)---8-|----8-----(8)----||
|---------------------------|-----------------||


 2nd Verse
  Gtr I
   PM   PM                     PM     PM     PM
|-------------------------|---------------------------|
|-------------11--11------|------11-----10-----11-----|
|-------------10--10------|------10-----10-----10-----|
|--------------8---8---10-|---10-----10-----10--------|
|-10---10--10--8---8----8-|----8------8------8--------|
|--8----8---8-------------|---------------------------|
|
| Gtr II
|  PM   PM                     PM|    PM---------------
|-------------------------|---------------------------|
|-------------11--11------|---------------------------|
|-------------10--10------|---------------------------|
|--------------8---8---10-|---10-12--10-10--10-10--10-|
|-10---10------8---8----8-|----8--8---8--8---8--8---8-|
|--8----8-----------------|---------------------------|


                                               PM-|
|------------------6--------|----------------------------------|
|------------------6--------|----------11------------11--------|
|---------------------------|----------10------------10--------|
|---------------8--------10-|-(10)------------10--10-----------|
|-10---------10-6---------8-|--(8)-------------8---8-----------|
|--8----------8-------------|----------------------------------|
|
|--------------------------------------|    PM-----------|
|---------------------------|----------------------------------|
|---------------------------|----------------------------------|
|---------------------------|----------------------------------|
|---------------------------|----------10--10-10--10-10--10----|
|-10--10-10--10-8--8-8-8--8-|---8--8-8--8---8--8---8--8---8----|
|--8---8--8---8-------------|----------------------------------|


                                           PM-|
|-----------------------|-----------6-------------6---|
|-----------11--11------|-----------6-------------6---|
|-----------10--10---10-|-(10)------------------------|
|------------8---8---10-|-(10)------------10--10------|
|-10-----10--8---8----8-|--(8)-------------8---8------|
|--8------8-------------|-----------------------------|
|
|                                PM-----------------|
|-----------------------|-----------------------------|
|-----------11--11------|-----------------------------|
|---------x-10--10------|-----------------------------|
|---------x--8---8---10-|-(10)--10-12--10-10--10-12---|
|-10------x--8---8----8-|--(8)---8--8---8--8---8--8---|
|--8--------------------|-----------------------------|


|---------------------|---------------------------------||
|---------11--11------|---------------------------------||
|---------10--10------|---------------------------------||
|---------10--10---10-|-(10)--10-12--10-10--10---10s====||
|-10-------8---8----8-|--(8)---8--8---8--8---8----8s====||
|--8------------------|---------------------------------||
|
|---------------------|---------------------------------||
|---------11--11------|---------------------------------||
|---------10--10------|---------------------------------||
|---------10--10---10-|--10---10-12--10-10--10---10/----||
|-10-------8---8----8-|---8----8--8---8--8---8----8/----||
|--8------------------|---------------------------------||


  Gtrs I, II
|-------------------|--------------------|
|-------------------|--------------------|
|------12------12---|-(12)---12------x---|
|-12---10------12---|-(12)---12------x---|
|-10---10------10---|-(10)---10------x---|
|-------------------|--------------------|


|---------------|----------------------||
|-11------------|-11------(8)---(8)----||
|-10------------|-10-------8-----8-----||
|--8------------|--8-------8-----8-----||
|--8------------|--8-------6-----6-----||
|---------------|----------------------||


 2nd Chorus
  Gtr I
                    PM-|
|-------------------------|-------------------------|
|----------6---5----------|-------------10---11-----|
|----------5---5----------|--------10---10---10-----|
|----------7---5----------|-10-----10---10---10-----|
|-10---------------10--10-|--8------8----8----8--10-|
|--8----------------8---8-|-----------------------8-|
|
| Gtr II
|  PM-|             PM-|
|-------------------------|-------------------------|
|--------5h6---5----------|--------11---10---10-----|
|--------5-5---5----------|--------10---10---10-----|
|--------5h7---5----------|-10--10-10---10---10-----|
|-10--10-----------10--10-|--8---8--8----8----8--10-|
|--8---8------------8---8-|-----------------------8-|


                                   PM-|
|-------------------|-----------------------------|
|-----6---5---------|-----11-------------11-------|
|-----5---5---------|-------------10--10----------|
|-----7---5-----<7>-|-10----------10--10----------|
|-------------------|--8---------------------10---|
|-------------------|-------------------------8---|
|
|-------------------|-----------------------------|
|---x-6---5---------|--------11---10-----11-------|
|---x-5---5---------|--------10---10-----10-------|
|---x-7---5-----10--|--------10---10-----10-------|
|----------------8--|---------8----8------8--10---|
|-------------------|-------------------------8---|


|-----------------|-------------------------|
|----6---5--------|----------11---10--------|
|----5---5--------|----------10---10--------|
|----7---5-----10-|-(10)--10-10---10--------|
|---------------8-|--(8)---8--8----8--------|
|-----------------|-------------------------|
|
|-----------------|-------------------------|
|----6---5--------|----------11---10--------|
|----5---5--------|----------10---10--------|
|----7---5-----10-|--10---10-10---10-----10s|
|---------------8-|---8----8--8----8------8s|
|-----------------|-------------------------|


|-----------------------------|-------||
|------------13---13-(13)--12-|-12----||
|-12---(12)--14---12-(12)--12-|-12----||
|-12---(12)--10---14-(14)--12-|-12----||
|-10---(10)-------10-(10)--10-|-10----||
|-----------------------------|-------||
|
|-----------------------------|-------||
|------------13---13-(13)--12-|-12----||
|------------12---12-(12)--12-|-12----||
|-12---(12)--14---14-(14)--12-|-12----||
|-10---(10)--10---10-(10)--10-|-10----||
|-----------------------------|-------||


                                   ~~~~~~~
|-----------------------|--------------------------------------|
|-----------------------|-------8s10-(10)---(10)--10--8--------|
|-7s=9-----9-7--9-7---5-|--(5)-------------------------------9-|
|-----------------------|--------------------------------------|
|-----------------------|--------------------------------------|
|-----------------------|--------------------------------------|
|
|    ~~                            ~~~~~~~~~~~~~~
|-----------------------|--------------------------------------|
|-----------------------|-------5s=6--(6)----(6)---6--4b4.5----|
|-3s=5-----5-3--5-3---2-|--(2)-------------------------------5-|
|-----------------------|--------------------------------------|
|-----------------------|--------------------------------------|
|-----------------------|--------------------------------------|
|
| Gtr III
|---------------6-------|--------------------------------------|
|---------------6-------|-------------11-----------------------|
|-----------------------|-------------10-----------------------|
|--------------------10-|-(10)--------10-----10---10-12--------|
|---10-------8----8---8-|--(8)---------8------8----8--8--------|
|----8-------6----6-----|--------------------------------------|


                          ~~~~~~~~~
|---------------------------|-----------------------------------------|
|---------------------------|---------------10pb12==(10)r(10)p8-10----|
|-(9)----------9-7--9-7---5-|--(5)----------------------------------9-|
|---------------------------|-----------------------------------------|
|---------------------------|-----------------------------------------|
|---------------------------|-----------------------------------------|
|
|                         ~~~~~~~~~
|---------------------------|-----------------------------------------|
|---------------------------|----------------6pb8=====6r==(6)p4--6----|
|-(5)----------5-3--5-3---2-|--(2)----------------------------------5-|
|---------------------------|-----------------------------------------|
|---------------------------|-----------------------------------------|
|---------------------------|-----------------------------------------|
|
|-------------------6-------|-----------------------------------------|
|-------------------6-------|----------11-----------------------------|
|---------------------------|----------10-----------------------10----|
|------------------------10-|-(10)--10-10------------10---------10----|
|-10----(10)--10-8----8---8-|--(8)---8--8-------------8----------8----|
|--8-----(8)---8-6----6-----|-----------------------------------------|


   ~~~                            ~~~~~~~
|----------------------|--------------------------------------|
|----------------------|-------8s10-(10)---(10)--10--8--------|
|-(9)-----9-7--9-7---5-|--(5)-------------------------------9-|
|----------------------|--------------------------------------|
|----------------------|--------------------------------------|
|----------------------|--------------------------------------|
|
|  ~~~                            ~~~~~~~~~~~~~~
|----------------------|--------------------------------------|
|----------------------|-------5s=6--(6)----(6)---6--4b4.5----|
|-(5)-----5-3--5-3---2-|--(2)-------------------------------5-|
|----------------------|--------------------------------------|
|----------------------|--------------------------------------|
|----------------------|--------------------------------------|
|
|--------------6-------|--------------------------------------|
|--------------6-------|-------------11-----------------------|
|----------------------|-------------10-----------------------|
|-------------------10-|-(10)--------10-----10---10-12--------|
|-10--------8----8---8-|--(8)---------8------8----8--8--------|
|--8--------6----6-----|--------------------------------------|


                          ~~~~~~~~~~~~~~~~~~~~~~
|---------------------------|----------------------------------|
|---------------------------|----------------------------------|
|-(9)----------9-7--9-7---5-|--(5)----------(5)----------------|
|---------------------------|----------------------------------|
|---------------------------|----------------------------------|
|---------------------------|----------------------------------|
|
|                         ~~~~~~~~~~~~~~~~~~~~~~
|---------------------------|----------------------------------|
|---------------------------|----------------------------------|
|-(5)----------5-3--5-3---2-|--(2)----------(2)-----(2)---2/---|
|---------------------------|----------------------------------|
|---------------------------|----------------------------------|
|---------------------------|----------------------------------|
|
|-------------------6-------|----------------------------------|
|-------------------6-------|----------11----------------------|
|---------------------------|----------10----------------------|
|------------------------10-|-(10)--10-10---10---10------10s===|
|-10----(10)--10-8----8---8-|--(8)---8--8----8----8-------8s===|
|--8-----(8)---8-6----6-----|----------------------------------|


         ~~
|---8----8-------------8-|---------------8-----------|----11---11b11.5---(11)------11----13b15-(13)-|
|---------------8-10-----|--------8-10--------8------|-------------------------13-------------------|
|------------------------|---------------------------|----------------------------------------------|
|------------------------|---------------------------|----------------------------------------------|
|------------------------|---------------------------|----------------------------------------------|
|------------------------|---------------------------|----------------------------------------------|
|
|        ~~                                                     ~~~~~~~
|------------------------|---------------------------|----------------------------------------------|
|------------------------|---------------------------|-13s16---13--------(13)------13----15b16-(15)-|
|-/12---12------------12-|--------------12-----------|-------------------------14-------------------|
|--------------12-14-----|-------12-14-------12-14---|----------------------------------------------|
|------------------------|---------------------------|----------------------------------------------|
|------------------------|---------------------------|----------------------------------------------|
|
|------------------------|---------------------------|----------------------------------------------|
|------------------------|---------------------------|----------------------------------------------|
|-------12--------12-----|-(12)-----12----------12---|----15-------------(15)-----(15)-------------|
|--12---12--------12-----|-(12)-----12----------12---|----15-------------(15)-----(15)-------------|
|--10---10--------10-----|-(10)-----10----------10---|----13-------------(13)-----(13)-------------|
|------------------------|---------------------------|----------------------------------------------|


|-(13)--13pb15==(13)r(13)-11----13b15-(13)--13pb15==(13)r(13)-11-------|
|----------------------------13----------------------------------13----|
|----------------------------------------------------------------------|
|----------------------------------------------------------------------|
|----------------------------------------------------------------------|
|----------------------------------------------------------------------|
|
|----------------------------------------------------------------------|
|-(15)--15pb16==(15)r(15)-13----15b16-(15)--15pb17==(15)r(15)-13-------|
|----------------------------14----------------------------------14----|
|----------------------------------------------------------------------|
|----------------------------------------------------------------------|
|----------------------------------------------------------------------|
|
|                             PM
|----------------------------------------------------------------------|
|----------------------------------------------------------------------|
|----------------------------------------------------------------------|
|--10-----------------10----------------8------------------8-----------|
|---8------------------8----------------6------------------6-----------|
|-----------------------------8----------------------------------------|


                         ~~~~~~~~~~~~~~~
||--13b15-(13)--13pb15-(13)--13----(13)---------13b15-(13)|-(13)--13pb15==(13)r(13)-11----13b15-(13)--13pb15==(13)r(13)-11-----||
||o-------------------------------------------------------|----------------------------13----------------------------------13-o||
||--------------------------------------------------------|--------------------------------------------------------------------||
||--------------------------------------------------------|--------------------------------------------------------------------||
||o-------------------------------------------------------|-------------------------------------------------------------------o||
||--------------------------------------------------------|--------------------------------------------------------------------||
|
|                        ~~~~~~~~~~~~~~~
||--------------------------------------------------------|--------------------------------------------------------------------||
||o-15b17-(15)--15pb17-(15)-(15)---(15)---------15b16-(15)|-(15)--15pb16==(15)r(15)-13----15b16-(15)--15pb16==(15)r(15)-13----o||
||--------------------------------------------------------|----------------------------14----------------------------------14--||
||--------------------------------------------------------|--------------------------------------------------------------------||
||o-------------------------------------------------------|-------------------------------------------------------------------o||
||--------------------------------------------------------|--------------------------------------------------------------------||
|
||--------------------------------------------------------|--------------------------------------------------------------------||
||o-------------------------------------------------------|---------------------11---------------10-----------------11--------o||
||---------------------------10------9--------------------|---------------------10---------------10-----------------10---------||
||---------------------------10-----10------------------9s|==10------------10---10-----10--------10------------10---10---------||
||o--------10-----------10---10-----10---10-10----------7s|===8-------------8----8------8---------8-------------8----8-----10-o||
||----------8------------8----8------8----8--8------------|-----------------------------------------------------------------8--||


                       ~~~~~~~~~~~~~~~
|-13b15-(13)--13pb15-(13)--13----(13)---------13b15-(13)---|
|----------------------------------------------------------|
|----------------------------------------------------------|
|----------------------------------------------------------|
|----------------------------------------------------------|
|----------------------------------------------------------|
|
|                      ~~~~~~~~~~~~~~~
|----------------------------------------------------------|
|-15b17-(15)--15pb17-(15)-(15)---(15)---------15b16-(15)---|
|----------------------------------------------------------|
|----------------------------------------------------------|
|----------------------------------------------------------|
|----------------------------------------------------------|
|
|----------------------------------------------------------|
|----------------------------------------------------------|
|--------------------------10------9-----------------------|
|--------------------------10-----10------------------9s===|
|--------10-----------10---10-----10---10-10----------7s===|
|---------8------------8----8------8----8--8---------------|


|-(13)--13pb15==(13)r(13)-11----13b15-(13)--13pb15==(13)r(13)-------|
|----------------------------13-------------------------------------|
|-------------------------------------------------------------------|
|-------------------------------------------------------------------|
|-------------------------------------------------------------------|
|-------------------------------------------------------------------|
|
|-------------------------------------------------------------------|
|-(15)--15pb16==(15)r(15)-13----15b16-(15)--15pb16==(15)r(15)-13----|
|----------------------------14----------------------------------14-|
|-------------------------------------------------------------------|
|-------------------------------------------------------------------|
|-------------------------------------------------------------------|
|
|-------------------------------------------------------------------|
|---------------------11---------------10-----------------11--------|
|---------------------10---------------10-----------------10--------|
|--10------------10---10-----10--------10------------10---10--------|
|---8-------------8----8------8---------8-------------8----8-----10-|
|-----------------------------------------------------------------8-|


                                                                                 ~~~~
|-18b19-(18)---(18)b20--------(18)-(18)--18pb20-(18)-(18)----18pb20==(18)r===|=(18)------(18)------------||
|----------------------------------------------------------------------------|---------------------------||
|----------------------------------------------------------------------------|---------------------------||
|----------------------------------------------------------------------------|---------------------------||
|----------------------------------------------------------------------------|---------------------------||
|----------------------------------------------------------------------------|---------------------------||
|
|                                                                                ~~~~
|--------15-------------15b17-(15)-(15)--15pb17-(15)---------15pb17==(15)r===|=(15)----------------------||
|----------------------------------------------------------------------------|---------------------------||
|----------------------------------------------------------------------------|---------------------------||
|----------------------------------------------------------------------------|---------------------------||
|----------------------------------------------------------------------------|---------------------------||
|----------------------------------------------------------------------------|---------------------------||
|
|----------------------------------------------------------------------------|---------------------------||
|--------12----(12)------------13----------------13--(13)-12--------------12-|---------------------------||
|--------12----(12)------------12----------------12--(12)-12--------------12-|--12-------(12)---(12)----||
|--------12----(12)------------14----------------14--(14)-12--------------12-|--12-------(12)---(12)----||
|--------10----(10)------------10----------------10--(10)-10--------------10-|--10-------(10)---(10)----||
|----------------------------------------------------------------------------|---------------------------||


 3rd Chorus
       PM--------------|                    PM|    PM|
|----------------------------|-----------8------------------|
|----------------------------|--------11--------------------|
|--9-----10------------------|--------10--------------------|
|-10-----10----------------9s|=10--10-10---10-10--10-12-----|
|-10--10-10--10-10--10-18--7s|==8---8--8----8--8---8--8--10-|
|--8---8--8---8--8---8--8----|----------------------------8-|
|
|                                   PM------------------|
|----------------------------|------------------------------|
|----------------------------|------------------------------|
|----------------------------|------------------------------|
|--------------------------9s|=10--10-12------10--10-12-----|
|-10--10-10--10-10---------7s|==8---8--8-------8---8--8--10-|
|--8---8--8---8--8-----------|----------------------------8-|


|-----------------------------|--------------------------------|
|-----------------------------|--------11-----10--10-12--------|
|-----------------------------|--------10-----10--10-10--------|
|---------------------------9s|=10--10-10-----10--10-10--------|
|--------10--10-(10)---10--7s|==8---8--8------8---8--8--10----|
|-8-8-----8---8--(8)----8----|---------------------------8----|
|
|                                    PM------------------|
|---------8---8---8----------|--------------------------------|
|---------8---8---8----------|--------------------------------|
|---------9---9---9----------|--------------------------------|
|--------10--10--10--------9s|=10--10-12--10-10--10-12--------|
|-----10----------------10--7s|==8---8--8---8--8---8--8--10----|
|------8-----------------8----|---------------------------8----|


  Gtrs I, II
|---------8---8--(8)---------|-------------------------|
|---------8---8--(8)---------|--------11---------------|
|---------9---9--(9)---------|--------10---------------|
|--------10--10-(10)-------9s|=10--10-10---10--10---10s|
|-10--10---------------10--7s|==8---8--8----8---8----8s|
|--8---8----------------8----|-------------------------|


|------------------------------------|-------||
|------------13-(13)--13-(13)--12-12-|-12----||
|------------12-(12)--12-(12)--12-12-|-12----||
|-12---(12)--14-(14)--14-(14)--12-12-|-12----||
|-10---(10)--10-(10)--10-(10)--10-10-|-10----||
|------------------------------------|-------||


 4th Chorus
  Gtr I
   PM  PM      PM  PM|        PM  PM      PM  PM     PM
|--------------------------|---------------------------|
|--------13----------------|--------11----------11-----|
|--------12----------------|--------10----------10-----|
|--------10--------------9-|-10--10-10---10--10-10--10-|
|-10--10------10--10-10--7-|--8---8--8----8---8--8---8-|
|--8---8-------8---8--8----|---------------------------|
|
| Gtr II
|                             PM  PM
|--------------------------|---------------------------|
|-13-----13----------------|--------13---13-----13-----|
|-12-----12----------------|--------10---10-----10-----|
|-10-----10----------------|-10--10-10---10-----10--10-|
|-------------10-----10----|--8---8------------------8-|
|--------------8------8----|---------------------------|


       PM        PM  PM|            PM      PM  PM
|----------------------------|------------------------------|
|--------13--13--------------|--------11----------11--------|
|--------12--12--------------|--------10----------10--------|
|--------10--10------------9-|-10--10-10---10--10-10--------|
|-10--10--------10--10-10--7-|--8---8--8----8---8--8--10----|
|--8---8---------8---8--8----|-------------------------8----|
|
|----------------------------|------------------------------|
|--------13------------------|--------13---13-----13--------|
|--------12------------------|------------------------------|
|--------10------------------|-10-----10---10-----10--------|
|-10------------10-----------|--8---------------------------|
|--8-------------8-----------|------------------------------|


|--------------------------|----------------------------|
|--------13--13------------|----------------------------|
|--------12--12------------|----------------------------|
|--------10--10----------9S|=10--10-12---10--10-10---10s|
|-----10--------10---10--7S|==8---8--8----8---8--8----8s|
|------8---------8----8----|----------------------------|
|
|--------------------------|----------------------------|
|--------13--13------------|-13-----13---13-------------|
|--------12--12------------|----------------------------|
|--------10--10------------|-10-----10---10-----10/-----|
|-10--10--------10---10----|---------------------8/-----|
|--8---8---------8----8----|----------------------------|
|
| Gtr III
|--------------------------|----------------------------|
|--------------------------|----------------------------|
|--------------------------|----------------------------|
|--------------------------|----------------------------|
|--------------------------|----------------------------|
|--------------------------|----------------------------|


|---------------------------|-----------------------||
|---------------------------|-12--------------------||
|---------------------12----|-----------------------||
|-12---(12)--12-(12)--------|-----------------------||
|-10---(10)-----------------|-----------------------||
|---------------------------|-----------------------||
|
|---------------------------|-----------------------||
|---------------------------|-----------------------||
|---------------------------|-----------------------||
|-12---(12)--12-(12)--12----|-12--------------------||
|-10---(10)--10-(10)--10----|-10--------------------||
|---------------------------|-----------------------||
|
|                                                ~~
|---------------------------|----------11b11.5------||
|---------------------------|-------------------13--||
|---------------------------|-----------------------||
|---------------------------|-----------------------||
|---------------------------|-----------------------||
|---------------------------|-----------------------||


 5th Chorus w/solo
    PM    PM      PM  PM|        PM  PM      PM  PM     PM
|-----------------------------|---------------------------|
|-----------13----------------|--------11----------11-----|
|-----------12----------------|--------10----------10-----|
|-----------10--------------9-|-10--10-10---10--10-10--10-|
|--10----10------10--10-10--7-|--8---8--8----8---8--8---8-|
|---8-----8-------8---8--8----|---------------------------|
|
|                                PM  PM
|-----------------------------|---------------------------|
|--13-------13----------------|--------13---13-----13-----|
|--12-------12----------------|--------10---10-----10-----|
|--10-------10----------------|-10--10-10---10-----10--10-|
|----------------10-----10----|--8---8------------------8-|
|-----------------8------8----|---------------------------|
|
|   ~~~~~
|-----------------------------|---------------------------|
|-(13)-----------------------|---------------------------|
|-----------------------------|---------------------------|
|-----------------------------|---------------------------|
|-----------------------------|---------------------------|
|-----------------------------|---------------------------|


       PM        PM  PM|            PM      PM  PM
|----------------------------|-------------------------------------|
|--------13--13--------------|--------11-----------11--------------|
|--------12--12--------------|--------10-----------10--------------|
|--------10--10------------9-|-10--10-10---10--10--10--------------|
|-10--10--------10--10-10--7-|--8---8--8----8---8---8--------10----|
|--8---8---------8---8--8----|--------------------------------8----|
|
|----------------------------|-------------------------------------|
|--------13------------------|--------13---13------13--------------|
|--------12------------------|-------------------------------------|
|--------10------------------|-10-----10---10------10--------------|
|-10------------10-----------|--8----------------------------------|
|--8-------------8-----------|-------------------------------------|
|
|                                                             ~~
|----------------------------|-------------------------------------|
|----------------------------|-----------------11-(11)b11.5h=13----|
|----------------------------|-------------------------------------|
|----------------------------|-------------------------------------|
|----------------------------|-------------------------------------|
|----------------------------|-------------------------------------|


|------------------------------|----------------------------|
|------------13--13------------|----------------------------|
|------------12--12------------|----------------------------|
|------------10--10----------9S|=10--10-12---10--10-10---10s|
|---------10--------10---10--7S|==8---8--8----8---8--8----8s|
|----------8---------8----8----|----------------------------|
|
|------------------------------|----------------------------|
|------------13--13------------|-13-----13---13-------------|
|------------12--12------------|----------------------------|
|------------10--10------------|-10-----10---10-----10/-----|
|--10-----10--------10---10----|---------------------8/-----|
|---8------8---------8----8----|----------------------------|
|
|   ~~~~~
|------------------------------|----------------------------|
|-(13)s11----------------------|----------------------------|
|------------------------------|----------------------------|
|------------------------------|----------------------------|
|------------------------------|----------------------------|
|------------------------------|----------------------------|


|---------------------------------------|----------------------------------------------|
|---------------------------------------|----------------------------------------------|
|-------------------------------12------|----12----------------------------------------|
|----12-----(12)--12----(12)------------|----------------------------------------------|
|----10-----(10)------------------------|----------------------------------------------|
|---------------------------------------|----------------------------------------------|
|
|---------------------------------------|----------------------------------------------|
|---------------------------------------|----------------------------------------------|
|---------------------------------------|----------------------------------------------|
|----12-----(12)--12----(12)----12------|----12----------------------------------------|
|----10-----(10)--10----(10)----10------|----10----------------------------------------|
|---------------------------------------|----------------------------------------------|
|
|                                                                                 ~~
|-------11---11--------------11----11---|-------11--11---13b15==(13)r(13)p11-----------|
|---------------------------------------|------------------------------------13--13----|
|-10s12--------------10s=12-------------|-10s12----------------------------------------|
|---------------------------------------|----------------------------------------------|
|---------------------------------------|----------------------------------------------|
|---------------------------------------|----------------------------------------------|


    PM   PM                   PM       PM|          PM   PM      PM       PM             PM
|-----------------------------------------------|------------------------------------------|
|----------13-----------------------------------|----------11----------------------11------|
|----------12-----------------------------------|----------10----------------------10------|
|----------10---------------------------------9-|--10---10-10---10-------10--------10---10-|
|--10---10-------------------10-------10-10---7-|---8----8--8----8--------8---------8----8-|
|---8----8--------------------8--------8--8-----|------------------------------------------|
|
|                                                   PM   PM
|-----------------------------------------------|------------------------------------------|
|--13------13-----------------------------------|----------13---13-----------------13------|
|--12------12-----------------------------------|----------10---10-----------------10------|
|--10------10-----------------------------------|--10---10-10---10-----------------10---10-|
|----------------------------10----------10-----|---8----8-------------------------------8-|
|-----------------------------8-----------8-----|------------------------------------------|
|
|                                             ~~~~~~~~~
|----------11b11.5---13b15==(13)r(13)p11--------|---------------11b11.5-----13b15-(13)-----|
|-(13)-----------------------------------13--13-|-(13)-------------------------------------|
|-----------------------------------------------|------------------------------------------|
|-----------------------------------------------|------------------------------------------|
|-----------------------------------------------|------------------------------------------|
|-----------------------------------------------|------------------------------------------|


         PM                   PM       PM|               PM              PM  PM
|------------------------------------------------|------------------------------------|
|-----------13----13-----------------------------|---------11------------------11-----|
|-----------12----12-----------------------------|---------10------------------10-----|
|-----------10----10-------------------------9---|-10---10-10-----------10--10-10-----|
|-10----10-------------------10-------10-10--7---|--8----8--8------------8---8--8--10-|
|--8-----8--------------------8--------8--8------|----------------------------------8-|
|
|------------------------------------------------|------------------------------------|
|-----------13-----------------------------------|---------13-----------13-----13-----|
|-----------12-----------------------------------|------------------------------------|
|-----------10-----------------------------------|-10------10-----------10-----10-----|
|-10-------------------------10------------------|--8---------------------------------|
|--8--------------------------8------------------|------------------------------------|
|
|     ~~
|-11---------------------------------------------|-----------------------8------------|
|----13----(13)---------------------------------|--------------------8-----11--8--11-|
|--------------------10b12==(10)r(10)p=8-10--8b9-|-(8)-----10b12-(10)-----------------|
|------------------------------------------------|------------------------------------|
|------------------------------------------------|------------------------------------|
|------------------------------------------------|------------------------------------|


|-----------------------------------------|----------------------------------------------------|
|--------------13---13--------------------|----------------------------------------------------|
|--------------12---12--------------------|----------------------------------------------------|
|--------------10---10------------------9S|====10----10-12-------10----10---------10----10s====|
|----------10----------10----------10---7S|=====8-----8--8--------8-----8----------8-----8s====|
|-----------8-----------8-----------8-----|----------------------------------------------------|
|
|-----------------------------------------|----------------------------------------------------|
|--------------13---13--------------------|----13-------13-------13----------------------------|
|--------------12---12--------------------|----------------------------------------------------|
|--------------10---10--------------------|----10-------10-------10---------------10/----------|
|--10------10----------10----------10-----|----------------------------------------8/----------|
|---8-------8-----------8-----------8-----|----------------------------------------------------|
|
|               ~~~~
|----------------------------------11--11-|-------11-11-11----11----11-11-13b15==(13)r=(13)p11-|
|-(11)b13-----(11)--------11--------------|-------11-11-11----11----11-11----------------------|
|----------------------------10s12--------|-10s12----------12----12----------------------------|
|-----------------------------------------|----------------------------------------------------|
|-----------------------------------------|----------------------------------------------------|
|-----------------------------------------|----------------------------------------------------|


|---------------------------------------|----------------------------------||
|---------------------------------------|----------------------------------||
|---------------------12----------------|--12------------------------------||
|-12---(12)--12-(12)--------------------|----------------------------------||
|-10---(10)-----------------------------|----------------------------------||
|---------------------------------------|----------------------------------||
|
|---------------------------------------|----------------------------------||
|---------------------------------------|----------------------------------||
|---------------------------------------|----------------------------------||
|-12---(12)--12-(12)--12----------------|--12------------------------------||
|-10---(10)--10-(10)--10----------------|--10------------------------------||
|---------------------------------------|----------------------------------||
|
|---------------------11-13--13b15-(13)-|-(13)---13pb15---13b15---13b15----||
|-13------------(13)--------------------|----------------------------------||
|---------------------------------------|----------------------------------||
|---------------------------------------|----------------------------------||
|---------------------------------------|----------------------------------||
|---------------------------------------|----------------------------------||


 6th Chorus w/solo
   PM  PM             PM       PM|         PM  PM          PM              PM        PM
|---------------------------------------|----------------------------------------------|
|--------13-----------------------------|--------11---------------------------11-------|
|--------12-----------------------------|--------10---------------------------10-------|
|--------10---------------------------9-|-10--10-10-------10--------------10--10----10-|
|-10--10-------------10-------10-10---7-|--8---8--8--------8---------------8---8-----8-|
|--8---8--------------8--------8--8-----|----------------------------------------------|
|
|                                          PM  PM
|---------------------------------------|----------------------------------------------|
|-13-----13-----------------------------|--------13-------13------------------13-------|
|-12-----12-----------------------------|--------10-------10------------------10-------|
|-10-----10-----------------------------|-10--10-10-------10------------------10----10-|
|--------------------10----------10-----|--8---8-------------------------------------8-|
|---------------------8-----------8-----|----------------------------------------------|
|
|                                                                                 ~~
|-11-----13b15--(13)-11b11.5------------|-------------11-----13b15==(13)r(13)p11-------|
|--------------------------------13--11-|-13--------x----------------------------13----|
|---------------------------------------|---------x------------------------------------|
|---------------------------------------|----------------------------------------------|
|---------------------------------------|----------------------------------------------|
|---------------------------------------|----------------------------------------------|


       PM                PM    PM|            PM           PM  PM
|--------------------------------------|--------------------------------|
|---------------13---13----------------|--------11---------------11-----|
|---------------12---12----------------|--------10---------------10-----|
|---------------10---10--------------9-|-10--10-10--------10--10-10-----|
|-10--10----------------10----10-10--7-|--8---8--8---------8---8--8--10-|
|--8---8-----------------8-----8--8----|------------------------------8-|
|
|--------------------------------------|--------------------------------|
|---------------13---------------------|--------13--------13-----13-----|
|---------------12---------------------|--------------------------------|
|---------------10---------------------|-10-----10--------10-----10-----|
|-10--------------------10-------------|--8-----------------------------|
|--8---------------------8-------------|--------------------------------|
|
|                           ~~~~~~~~                       ~~
|-11-----11b13-(11)-----11-------------|--------11b11.5-----------------|
|--------------------------13----13----|-11---------------13---------13-|
|--------------------------------------|-----12------------------14-----|
|--------------------------------------|--------------------------------|
|--------------------------------------|--------------------------------|
|--------------------------------------|--------------------------------|


   PM         PM              PM           PM-|                PM   PM           PM  PM     PM
|----------------------------------------------------|-------------------------------------------|
|----------------------13----------------------------|----------------11---------------11--------|
|----------------------12----------------------------|----------------10---------------10--------|
|----------------------10--------------------------9-|--------10---10-10--------10--10-10--10----|
|-10---------10--------------10-----------10--10---7-|---------8----8--8---------8---8--8---8----|
|--8----------8---------------8------------8---8-----|-------------------------------------------|
|
|                                                              PM   PM
|----------------------------------------------------|-------------------------------------------|
|-13-------------------13----------------------------|----------------13--------13-----13--------|
|-12-------------------12----------------------------|----------------10--------10-----10--------|
|-10-------------------10----------------------------|--------10---10-10--------10-----10--10----|
|----------------------------10---------------10-----|---------8----8-----------------------8----|
|-----------------------------8----------------8-----|-------------------------------------------|
|
|----------------------------15----------------------|-------------------------------------------|
|-15b17-(15)----15b17-(15)-------15pb17==(15)r15--13-|-16b18-(16)-----16b16.5---13-----13--15b17-|
|----------------------------------------------------|------------------------------14-----------|
|----------------------------------------------------|-------------------------------------------|
|----------------------------------------------------|-------------------------------------------|
|----------------------------------------------------|-------------------------------------------|


         PM               PM   PM|                     PM      PM  PM
|---------------------------------------------|------------------------------------|
|-----------13---13---------------------------|----------11----------11------------|
|-----------12---12---------------------------|----------10----------10------------|
|-----------10---10---------------------9-----|--10---10-10---10--10-10------------|
|--10---10---------------10---10--10----7-----|---8----8--8----8---8--8---------10-|
|---8----8----------------8----8---8----------|----------------------------------8-|
|
|---------------------------------------------|------------------------------------|
|-----------13--------------------------------|----------13---13-----13------------|
|-----------12--------------------------------|------------------------------------|
|-----------10--------------------------------|--10------10---10-----10------------|
|--10--------------------10-------------------|---8--------------------------------|
|---8---------------------8-------------------|------------------------------------|
|
|-------15-(15)--15pb17-(15)--15-(15)--15pb17-|-(15)--13-15---11--------11b11.5----|
|-(15)----------------------------------------|----------------------13------------|
|---------------------------------------------|------------------------------------|
|---------------------------------------------|------------------------------------|
|---------------------------------------------|------------------------------------|
|---------------------------------------------|------------------------------------|


   PM  PM               PM       PM|        PM      PM          PM      PM          PM
|----------------------------------------|------------------------------------------------|
|---------13-----------------------------|------------11------------------11--------------|
|---------12-----------------------------|------------10------------------10--------------|
|---------10---------------------------9-|-10------10-10-------10------10-10-------10-----|
|-10--10---------------10-------10-10--7-|--8-------8--8--------8-------8--8--------8-----|
|--8---8----------------8--------8--8----|------------------------------------------------|
|
|                                           PM      PM
|----------------------------------------|------------------------------------------------|
|-13------13-----------------------------|------------13-------13---------13--------------|
|-12------12-----------------------------|------------10-------10---------10--------------|
|-10------10-----------------------------|-10------10-10-------10---------10-------10-----|
|----------------------10----------10----|--8-------8-------------------------------8-----|
|-----------------------8-----------8----|------------------------------------------------|
|
|---------11---13b15==(13)r(13)p11-13----|-13pb15-----13pb15---13pb15-----13pb15r=(13)p11-|
|-13-------------------------------------|------------------------------------------------|
|----------------------------------------|------------------------------------------------|
|-----(0)--------------------------------|------------------------------------------------|
|----------------------------------------|------------------------------------------------|
|----------------------------------------|------------------------------------------------|


       PM         PM   PM|                       PM          PM      PM
|---------------------------------------|-------------------------------------------|
|--------13--13-------------------------|----------11------------------11-----------|
|--------12--12-------------------------|----------10------------------10-----------|
|--------10--10----------------------9--|--10---10-10-------10------10-10-----------|
|-10--10---------10---10-10----------7--|---8----8--8--------8-------8--8-------10--|
|--8---8----------8----8--8-------------|----------------------------------------8--|
|
|---------------------------------------|-------------------------------------------|
|--------13-----------------------------|----------13-------13---------13-----------|
|--------12-----------------------------|-------------------------------------------|
|--------10-----------------------------|--10------10-------10---------10-----------|
|-10-------------10---------------------|---8---------------------------------------|
|--8--------------8---------------------|-------------------------------------------|
|
|  ~~
|---------------------------------------|-------------------------------------------|
|---------------------------------------|----------16pb19---18pb20-----18pb20r=(18)-|
|-13------------(13)-----13--16b18-(16)-|-(16)--------------------------------------|
|---------------------14----------------|-------------------------------------------|
|---------------------------------------|-------------------------------------------|
|---------------------------------------|-------------------------------------------|


   PM  PM        PM  PM|        PM  PM        PM  PM     PM           PM            PM      PM|
|----------------------------|-----------------------------|--------------------------------------------|
|--------13------------------|--------11------------11-----|------------13------13----------------------|
|--------12------------------|--------10------------10-----|------------12------12----------------------|
|--------10----------------9-|-10--10-10-----10--10-10--10-|------------10------10--------------------9-|
|-10--10--------10--10-10--7-|--8---8--8------8---8--8---8-|-10------10------------10------10-10------7-|
|--8---8---------8---8--8----|-----------------------------|--8-------8-------------8-------8--8--------|
|
|                               PM  PM
|----------------------------|-----------------------------|--------------------------------------------|
|-13-----13------------------|--------13-----13-----13-----|------------13------------------------------|
|-12-----12------------------|--------10-----10-----10-----|------------12------------------------------|
|-10-----10------------------|-10--10-10-----10-----10--10-|------------10------------------------------|
|---------------10-----10----|--8---8--------------------8-|-10--------------------10-------------------|
|----------------8------8----|-----------------------------|--8---------------------8-------------------|
|
|                ~~             ~~~~~~~~~~~~~~~~~~~~~~~~~~~
|----------------------------|-----------------------------|-15pb17-----15pb17-----15pb17-----15pb17----|
|-13-----13-----13-----13----|-13-----13--13-13-----13--13-|--------------------------------------------|
|-12---------14--------------|-----------------------------|--------------------------------------------|
|-10-------------------------|-----------------------------|--------------------------------------------|
|----------------------------|-----------------------------|--------------------------------------------|
|----------------------------|-----------------------------|--------------------------------------------|


                  PM                   PM       PM
|-----------------------------------------------------------||
|-------------------11-------------------------------11-----||
|-------------------10-------------------------------10-----||
|---------10-----10-10----------------10-------10----10-----||
|----------8------8--8-----------------8--------8-----8--10-||
|---------------------------------------------------------8-||
|
|-----------------------------------------------------------||
|-------------------13----------------13-------------13-----||
|-----------------------------------------------------------||
|---------10--------10----------------10-------------10-----||
|----------8------------------------------------------------||
|-----------------------------------------------------------||
|
|-15b17==(15)-15-15-15r--15b17==(15)-(15)r(15)----15s17-----||
|-----------------------------------------------------------||
|-----------------------------------------------------------||
|-----------------------------------------------------------||
|-----------------------------------------------------------||
|-----------------------------------------------------------||


 Outro
|-11------------------|-------13b15-(13)---13--15-(15)-11----|
|----13--(13)---------|--------------------------------------|
|---------------------|--------------------------------------|
|---------------------|--------------------------------------|
|---------------------|--------------------------------------|
|---------------------|--------------------------------------|
|
|---------------------|--------------------------------------|
|---------------------|--------------------11--11---------10-|
|--5------------------|-(5)----------------10--10---------10-|
|--5------------------|-(5)-----------------8---8---------10-|
|--3------------------|-(3)-----------------8---8----------8-|
|---------------------|--------------------------------------|


    ~~~~~~~~~~~~~         ~~~~~~~~~
|-------------------11------|------------------------|
|--13-------(13)---------13-|-(13)---------13--------|
|---------------------------|----------





Comments


Popular Bad Company tabs & chords
Can't Get Enough Chords
Movin' On Chords
Rock Steady Chords
Bad Company 1 Tabs
Bad Company 2 Tabs
Burnin' Sky Tabs
Deal With The Preacher Tabs
Feel Like Makin' Love Tabs
Feel Like Making Love 1 Tabs
Seagull 1 Tabs


Song lyrics



↑ Back to top | Tablatures and chords are parodies/interpretations of the original songs. You may use it for private study, scholarship, research or language learning purposes only
© 2014 AZChords.com Contact us | Privacy policy | DMCA | Add/correct tabs | Request tabs | Top 50 tabs