» » »

As Long As You Love Me Chords (ver.3)

Artists:  A B C D E F G H I J K L M N O P Q R S T U V W X Y Z # 

As Long As You Love Me Chords (ver.3)

Backstreet Boys
Rating:
0/5 (0 votes)
Tabs too difficult? Try these video lessons and learn fast.
                Intro:
C G Am F
C G Am F - G

*if you have a second guitarist
just play this all throughout the song :D
     C
E|-3--------------|
b|---1------------|
g|-----0----------|
d|-------3--------|
a|---------0------|
e|----------------|

     G
E|-3--------------|
b|---3------------|
g|-----0----------|
d|-------0--------|
a|---------2------|
e|----------------|

     Am
E|-0--------------|
b|---1------------|
g|-----2----------|
d|-------2--------|
a|---------0------|
e|----------------|

     F
E|-1--------------|
b|---1------------|
g|-----2----------|
d|-------3--------|
a|---------3------|
e|----------------|

Verse:
C G Am F
Although loneliness has always been a friend of mine
C G Am F
I'm leavin' my life in your hands
C G Am F
People say I'm crazy and that I am blind
C G Am F
Risking it all in a glance
C G Am F
And how you got me blind is still a mystery
C G Am F
I can't get you out of my head
C G Am F
Don't care what is written in your history
C G Am F - G
As long as you're here with me

C G Am F
I don't care who you are
C G Am F
Where you're from
C G Am F
What you did
C G Am F
As long as you love me
C G Am F
Who you are
C G Am F
Where you're from
C G Am F
Don't care what you did
C G Am F - G
As long as you love me

Every little thing that you have said and done
Feels like it's deep within me
Doesn't really matter if you're on the run
It seems like we're meant to be

I don't care who you are (who you are)
Where you're from (where you're from)
What you did
As long as you love me (I don't know)
Who you are (who you are)
Where you're from (where you're from)
Don't care what you did
As long as you love me (yeah)

I've tried to hide it so that no one knows
But I guess it shows
When you look into my eyes
What you did and where you're comin from
I don't care, as long as you love me, baby

I don't care who you are (who you are)
Where you're from (where you're from)
What you did
As long as you love me (as long as you love me)
Who you are (who you are)
Where you're from (where you're from)
Don't care what you did (yeah)
As long as you love me (as long as you love me)
Who you are (who you are)
Where you're from
What you did
As long as you love me
Who you are (who you are)
Where you're from (where you're from)
As long as you love me
Who you are
As long as you love me
What you did (I don't care)
As long as you love me

Outro:

E|---3------|
b|----------|
g|----------|
d|----------|
a|----------|
e|----------|

E|---3------|
b|----------|
g|----------|
d|----------|
a|----------|
e|----------|

E|---0------|
b|----------|
g|----------|
d|----------|
a|----------|
e|----------|

E|---1------|
b|----------|
g|----------|
d|----------|
a|----------|
e|----------|
            
Tabs too difficult? Try these video lessons and learn fast.


comments powered by Disqus
↑ Back to top | Tablatures and chords are parodies/interpretations of the original songs. You may use it for private study, scholarship, research or language learning purposes only