» » »

Backstreet Boys, Incomplete Tabs (ver.1)

Artists:  A B C D E F G H I J K L M N O P Q R S T U V W X Y Z # 

Incomplete Tabs (ver.1)

Backstreet Boys Tabs
Rating:
0/5 (0 votes)
Hard to play? Try these video lessons and learn fast.
                This song should give your hand some exercise! It's a very good song. I didn't realize
it was backstreet and I'm a big backstreet fan! You can find a copy of the song by going
to dlsonline.net.   If you don't want to bother with the intro then THE CHORDS ARE RIGHT
BELOW THE INTRO

Introduction

Fm
E---2-----------------|
A---4-----------------|
D---4--------4--------|
G---2-----------------|
B---------------------|
e---------------------|

C#m
E-------4----------------|
A-------4----------------|
D-------6---6-------2----|
G------------------------|
B------------------------|
e------------------------|

E
E------0------------------|
A------2------------------|
D------2-------2----------|
G----- 1------------------|
B-------------------------|
e-------------------------|

B
E------------------------------|
A---------------------6----4---|
D------------------------------|
G----4-----4-------2-----------|
B------------------------------|
e------------------------------|

F#m      C#m
Empty spaces
E                 B
Fill me up with holes
F#m        C#m
Distant faces
         B	      A
With no place left to go
F#m              C#m
Without you within me
B                F#m
I can't find no rest
F#m           C#m      B        A
Where I'm going is anybody's guess

CHORUS
E
I've tried
  B                        A
To go on like I never knew you
E
I'm awake
B
But my world is half asleep
B
I pray
          F#m              C#m
For this heart to be unbroken
F#m                  C#m         B  A
But without you all I'm going to be is

E   B    F#m
In-com-plete

Voices tell me
I should carry on
But I am swimming
In an ocean all alone
Baby, my baby
It's written on your face
You still wonder
If we made a big mistake

CHORUS

E                       B
I don't mean to drag it on
B                           A
But I can't seem to let you go
E	             B	              F#m--- C#m
I don't wanna make you face this world aloooone


CHORUS

Incomplete... (2x)

Enjoy!
            

comments powered by Disqus
↑ Back to top | Backstreet Boys Tabs for Incomplete. Lyrics for acoustic guitar and electric guitar. Tablatures and chords are parodies/interpretations of the original songs. You may use it for private study, scholarship, research or language learning purposes only