>
 >
As Long As You Love Me

As Long As You Love Me Bass Tabs

Backstreet Boys - As Long As You Love Me chords, tabs, tablatures, lyrics

Guitar lessons | Add/correct | Request | Top 50 tabs Artists:  A B C D E F G H I J K L M N O P Q R S T U V W X Y Z 0-9

As Long As You Love Me Bass Tabs – Backstreet Boys

CD, Sheet music, Poster

Do you like As Long As You Love Me? Share with your friends now
Bass TabsBass Tabs v2ChordsChords v2Chords v3Chords v4TabsTabs v2Tabs v3Ukulele
-------------------------------------------------------------------------------
-------------------------------------------------------------------------------

Tuning: E A D G

Gtr I (E A D G) - 'Bass'

  Q=97
 4/4
  Gtr I
  W          W          W          W
|----------|----------|----------|------|
|----------|----------|----------|------|
|----------|----------|----------|------|
|----------|----------|----------|------|


  Q.   E Q.   E   Q.   E Q.   E   Q.   E Q.   E   Q.   S S E E E E
|---------------|---------------|---------------|-------------------|
|---------------|---------------|---------------|-------------------|
|-0----0-0------|---------------|---------------|-3----3---3-2-0----|
|---------------|-1----1-1------|-3----3-3------|----------------3--|


  Q.   E Q.   E   Q.   E Q.   E   Q  E E Q.   E   Q  E E E E E E
|---------------|---------------|---------------|----------------|
|---------------|---------------|---------------|--------2-0-----|
|-0----0-0------|---------------|-------------0-|-3----3-----3-2-|
|---------------|-1----1-1------|-3----3-3------|----------------|


  Q  E E Q.   E   Q  Q  E E E E   Q.   E Q.   E   Q  Q  E E E E
|---------------|---------------|---------------|---------------|
|---------------|----2--0-------|---------------|----2--0-------|
|-0----0-0------|---------3-2-0-|---------------|-3-------3-2---|
|---------------|-1-------------|-3----3-3------|-------------4-|


  Q  E E Q.   E   Q  Q  E E E S S   Q  E E H      Q  Q  H
|---------------|-----------------|-------------|------------|
|---------------|----2--0---------|-------------|------------|
|---------------|---------3-2-0---|-------------|-3----------|
|-5----5-5------|-1---------------|-3----3-3----|------------|


  Q  E E Q.   E   Q  Q  E E E E   Q.   E H      Q  Q  E E E E
|---------------|---------------|-------------|---------------|
|---------------|----2--0-------|-------------|----2--0-------|
|---------------|-3-------3-2---|-------------|---------3-2---|
|-1----1-1------|-------------4-|-5----5-5----|-3-----------3-|


  Q  Q  Q.   E   Q  Q  E E E E   Q  E E H      Q  Q  E E E E
|--------------|---------------|-------------|---------------|
|--------------|----2--0-------|-------------|----2--0-------|
|--------------|-3-------3-2---|-0----0-0----|---------3-2---|
|-1-----1------|-------------3-|-------------|-3-----------3-|


  Q  Q  E E Q    Q  E E Q.   E   Q  E E Q  Q    Q  Q  E E E E
|--------------|---------------|--------------|---------------|
|--------------|---------------|--------------|----2--0-------|
|-0-----0------|---------------|--------------|-3-------3-2---|
|--------------|-1----1-1------|-3----3-3-----|-------------3-|


  Q  E E Q.   E   Q  E E Q.   E   Q  E E Q.   E   Q  Q  H
|---------------|---------------|---------------|------------|
|---------------|---------------|---------------|------------|
|-0----0-0------|---------------|---------------|-3----------|
|---------------|-1----1-1------|-3----3-3------|------------|


  Q  E E H      Q  Q  E E E E   Q  E E Q.   E   Q  Q  E S S E E
|-------------|---------------|---------------|------------------|
|-------------|----2--0-------|---------------|----2--0----------|
|-------------|-3-------3-2---|-0----0-0------|---------3---2----|
|-1----1-1----|-------------3-|---------------|-3-------------3--|


  Q  E E Q.   E   Q  Q  E E E E   Q  E E Q  E E   Q.   E Q  E E
|---------------|---------------|---------------|---------------|
|---------------|----2--0-------|---------------|---------------|
|---------------|-3-------3-2---|-0----0--------|---------------|
|-1----1-1------|-------------3-|--------3----3-|-1----1-3----3-|


  Q  E E Q.   E   Q  Q  E E E E   Q  E E Q.   E   Q  E E Q.   E
|---------------|---------------|---------------|---------------|
|---------------|----2--0-------|---------------|---------------|
|---------------|-3-------3-2---|-0----0-0------|---------------|
|-1----1-1------|-------------3-|---------------|-3----3-3------|


  Q.   E Q.   E   Q  Q  E E S S E   Q  E E Q.   E   Q  E E Q  Q
|---------------|-----------------|---------------|---------------|
|---------------|----2--0---------|---------------|---------------|
|---------------|-3-------3-2-----|-0----0-0------|---------------|
|-1----1-1------|---------------3-|---------------|-0----0-0------|


  Q  E E Q.   E   Q  E E Q.   E   Q.   E Q.   E   Q  E E Q.   E
|---------------|---------------|---------------|---------------|
|---------------|---------------|---------------|---------------|
|-0----0-0------|---------------|---------------|---------------|
|---------------|-3----3-3------|-1----1-1------|-1----1-3------|


  Q  E E Q.   E   E E E E Q.   E   Q.   E Q.   E   Q  E E Q.   E
|---------------|----------------|---------------|---------------|
|---------------|----------------|---------------|---------------|
|-0----0-0------|-3-----3-3------|---------------|---------------|
|---------------|----------------|-2----2-2------|-1----1-3------|


  W          W          W          H    +Q.   E
|----------|----------|----------|--------------|
|----------|----------|----------|--------------|
|----------|-3--------|-0--------|--------------|
|-1--------|----------|----------|-3----(3)-----|


  Q  E E Q.   E   Q.   E E E E E   Q  E E Q.   E   Q  Q  E E E E
|---------------|----------------|---------------|---------------|
|---------------|------2-0-------|---------------|----2--0-------|
|---------------|-3--------3-2---|-0----0-0------|---------3-2---|
|-1----1-1------|--------------3-|---------------|-3-----------3-|


  Q.   E Q.   E   Q  Q  E E E E   Q  E E E E +E  E   H    Q  E E
|---------------|---------------|------------------|-------------|
|---------------|----2--0-------|------------------|-------------|
|---------------|-3-------3-2---|------------------|-------------|
|-1----1-1------|-------------3-|-1----1---0-(0)-0-|------3----3-|


  Q  E E Q.   E   Q  E E Q.   E   Q  E E Q.   E   Q  Q  E E E E
|---------------|---------------|---------------|---------------|
|---------------|---------------|---------------|----2--0-------|
|---------------|-3----3-3------|-0----0-0------|---------3-2---|
|-1----1-1------|---------------|---------------|-3-----------3-|


  Q  E E Q.   E   Q  E E Q.   E   Q  E E Q.   E   Q  E E Q  E E
|---------------|---------------|---------------|---------------|
|---------------|---------------|---------------|---------------|
|---------------|-3----3-3------|-0----0--------|---------------|
|-1----1-1------|---------------|--------3----3-|-1----1-3----3-|


  Q  E S S Q  E E   H    Q  E E   Q  E E Q  E E   H    Q.   E
|-----------------|-------------|---------------|--------------|
|-----------------|-------------|---------------|--------------|
|-----------------|-------------|---------------|--------------|
|-1----1---0----0-|------3----3-|-1----1-0----0-|------3----3--|


  H    +Q.   E
|-----------------*|
|-----------------*|
|-3----(3)--------*|
|-----------------*|


Duration Legend
---------------
W - whole; H - half; Q - quarter; E - 8th; S - 16th; T - 32nd; X - 64th; a - acciaccatura
+ - note tied to previous; . - note dotted; .. - note double dotted
Uncapitalized letters represent notes that are staccato (1/2 duration)
Irregular groupings are notated above the duration line
Duration letters will always appear directly above the note/fret number it represents the
duration for.  Duration letters with no fret number below them represent rests.  Multi-
bar rests are notated in the form Wxn, where n is the number of bars to rest for.  Low
melody durations appear below the staff

Tablature Legend
----------------
 h   - hammer-on
 p   - pull-off
 b   - bend
 pb  - pre-bend
 r   - bend release (if no number after the r, then release immediately)
 /\  - slide into or out of (from/to "nowhere")
 s   - legato slide
 S   - shift slide
  - natural harmonic
[n]  - artificial harmonic
n(n) - tapped harmonic
 ~   - vibrato
 tr  - trill
 T   - tap
 TP  - trem. picking
 PM  - palm muting
\n/  - tremolo bar dip; n = amount to dip
 \n  - tremolo bar down
 n/  - tremolo bar up
/n\  - tremolo bar inverted dip
 =   - hold bend; also acts as connecting device for hammers/pulls
 <>  - volume swell (louder/softer)
 x   - on rhythm slash represents muted slash
 o   - on rhythm slash represents single note slash

Misc Legend
-----------
 |  - bar
||  - double bar
||o - repeat start
o|| - repeat end
*|  - double bar (ending)
 :  - bar (freetime)
 $  - Segno
 &  - Coda
Tempo markers -  = BPM(8/16=s8/s16), where s8 = swing 8ths, s16 = swing 16ths





Comments


Popular Backstreet Boys tabs & chords
Answer To Our Lives Chords
Any Other Way Chords
I Want It That Way 2 Chords
No One Else Come Close Chords
Thats What She Said 1 Chords
Trouble Is Chords
All I Have To Give 1 Tabs
Larger Than Life 2 Tabs
Spanish Eyes Tabs
Weve Got It Going On Tabs


Song lyrics



↑ Back to top | Tablatures and chords are parodies/interpretations of the original songs. You may use it for private study, scholarship, research or language learning purposes only
© 2014 AZChords.com Contact us | Privacy policy | DMCA | Add/correct tabs | Request tabs | Top 50 tabs