>
 >
Slipped Away 1

Slipped Away 1 Guitar Tabs

Avril Lavigne - Slipped Away 1 chords, tabs, tablatures, lyrics

Guitar lessons | Add/correct | Request | Top 50 tabs Artists:  A B C D E F G H I J K L M N O P Q R S T U V W X Y Z 0-9

Slipped Away 1 Guitar Tabs – Avril Lavigne

CD, Sheet music, Poster

Do you like Slipped Away 1? Share with your friends now
ChordsChords v2Chords v3Chords v4TabsTabs v2Ukulele
Intro:                     SLIPPED AWAY
                         ----------------
guitar 1:
         mmmm____ mmmm___mm______  na na na na na na na
  ------------------------------------------------------------------|
  ------------------------------------------------------------------|
  ---4---4---4---4---4---4---4---4---4---4---4---4---4---4---4---4--|
  ----0---0---4---4---0---0---4---4---0---0---4---4---0---0---4---4-|
  ------------------------------------------------------------------|
  ------------------------------------------------------------------|
Guitar 2 plays the chords: G5,B5 x2 when she sings the words 'na na na na na na na'

VERSE 1:( guitar one continues the intro through the verse then plays this for pre-chorus)

-----------------------|
-----------------------|
---5---5---4---4-------| x2
----5---5---5---5------|
-----------------------|
-----------------------|
-----------------------|
no chords are played til the pre chorus:

I miss you
I miss you so bad
I don't forget you
Oh it's so sad

PRE-CHORUS:
C              G
i hope you can hear me
C              G
i remember it clearly

CHORUS:
Em      C            G     D
the day you slipped away
         Em     C
was the day i found
                 G
it won't be the same
D
oh
G5     B5
na na
         G5    B5
na na na na na

VERSE 2:
                       G5     B5
i didn't get around to kiss you
               G5   B5
goodbye on the hand
                  G5              B5
i wish that i could see you again
             G5     B5
i know that i can't

PRE-CHORUS same as before.

After the line 'hope you can hear me' guitar 1 plays:

----------------------------------|
-----------3~---------------------|
----0h2p0-------------------------|
----------------------------------|
----------------------------------|
----------------------------------|

CHORUS.X1
BRIDGE:
     E5
i've had my wake up
C5
won't you wake up
G5            D5
i keep asking why
E5
i can't take it
C5
it wasn't fake
G5                     D5
it happened you passed by
E5
now you're gone
E5
now you're gone
C5
there you go
C5
there you go
G5                           D5
somewhere i can't bring you back
E5
now you're gone
E5
now you're gone
C5
there you go
C5
there you go
G5                          D5
somewhere you're not coming back

during the 2nd half of the bridge:'now you're gone...' guitar 1 should play this til the 
of the chorus:

-------------------------|
--5~----7~----8~----10~--| x2
-------------------------|
-------------------------|
-------------------------|
-------------------------|

chorus x2
G    Bm
na na
        G     Bm
na na na na na

------------------|
------------------|
--4---4---4---4---|x2
---0---0---4---4--|
------------------|
------------------|

Bm
I miss you.





Comments


Popular Avril Lavigne tabs & chords
My World Bass Tabs
Sk8er Boi 6 Bass Tabs
Anything But Ordinary 2 Chords
What The Hell 3 Chords
You Never Satisfy Me Chords
Forgotten Intro Tabs
Im With You Live Tabs
Mobile (Solo) Tabs
Rock N Roll 4 Tabs
Take Me Away 2 Tabs


Song lyrics



↑ Back to top | Tablatures and chords are parodies/interpretations of the original songs. You may use it for private study, scholarship, research or language learning purposes only
© 2014 AZChords.com Contact us | Privacy policy | DMCA | Add/correct tabs | Request tabs | Top 50 tabs