» » »

Avril Lavigne, Slipped Away Tabs (ver.3)

Artists:  A B C D E F G H I J K L M N O P Q R S T U V W X Y Z # 

Slipped Away Tabs (ver.3)

Avril Lavigne Tabs
 Rating:
4/5 (4 votes)
Slipped Away lessons Tabs too difficult? Try these video lessons and learn fast
1
                (Live)
Avril Lavigne
Bonez Tour in Paris July 29 2004
2004
This song was dedicated for her grandpa.

Tuning: Standard EADGBe

Sequence=Avril-->Evan-->Craig

Avril=Piano,Lead Vocals
Evan=Lead Guitar, Backup vocals
Craig=electric Guitar
Charlie=Bass
Matt=Drums

Intro (Avril Only):
Actually the intro was originally came from piano that Avril is playing.
So I transpose it to guitar like this.


Avril
   Na Na   Na Na Na    Na Na
       G            Bm
e|------------|----------------|
B|------------|----------------|
G|-4----4-----|-4----4---------|
D|------------|---2----2-------| (x4)
A|---5----5-2-|-2----2---2-----|
E|-3----3-----|----------------|

Verse 1 (Avril Only):

Avril (Still doing piano intro above)

  G       Bm              G  Bm
I miss you, I miss you so bad
          G       Bm        G  Bm
I don't forget you oh it so sad


Refrain 1:

Avril
       C             G           C             G
e|------------|------------|------------|------------|
B|------------|------------|------------|------------|
G|-5----5-----|-4----4-----|-5----5-----|-4----4-----|
D|---5----5---|------------|---5----5---|------------|
A|-3----3---3-|---5----5-2-|-3----3---3-|---5----5-2-|
E|------------|-3----3-----|------------|-3----3-----|


C                G     C              G
 I hope you can hear me I remember it clearly


Evan (Nothing to do in this refrain)


Craig
       C             G           C             G
e|-12---------|-----10------|----12------|------------|
B|------------|---8---------|-13---------|-8----------|
G|------------|-7-----------|------------|------------|
D|------------|-------------|------------|------------|
A|------------|-------------|------------|------------|
E|------------|-------------|------------|------------|


              Em  Am           G D         Em         Am
Chorus 1: The Day you slipped Away Was the day that I found it
             G
won't be the same.


Avril (Em-Am-G-D in piano) (x2)


Evan (Same with Avril but electric guitar instead)
      Em        Am        G         D
e|----0----|----0----|----3----|----2----|
B|----0----|----1----|----3----|----3----|
G|----0----|----2----|----0----|----2----|
D|----2----|----2----|----0----|----0----| (x2)
A|----2----|----0----|----2----|----x----|
E|----0----|----x----|----3----|----x----|


Craig
      Em        Am        G         D
e|-0-------|----0----|------10-|------10-|
B|-5-------|----1----|----8----|----7----|
G|----4----|----2----|---------|---------|
D|---------|----2----|---------|---------| (x2)
A|------2--|----0----|---------|---------|
E|---------|----x----|---------|---------|

Oh

Avril (D in piano)


Evan

      D
e|----2----|
B|----3----|
G|----2----|
D|----0----|
A|----x----|
E|----x----|


Craig
e|---------------|
B|---------------|
G|-0-------------|
D|------5-4--2-0-|
A|---------------|
E|---------------|


Post Chorus (Same as Intro but Evan and Craig added)

Na na    na na na   Na na


Avril
        G            Bm
e|------------|----------------|
B|------------|----------------|
G|-4----4-----|-4----4---------|
D|------------|---2----2-------|
A|---5----5-2-|-2----2---2-----|
E|-3----3-----|----------------|


Evan (With palm mute included)
       G             Bm
e|------------|----------------|
B|------------|----------------|
G|------------|-4-pm(x3)-------|
D|-5-pm(x3)---|-4-pm(x3)-------|
A|-5-pm(x3)---|-2-pm(x3)-------|
E|-3-pm(x3)---|----------------|


Craig
e|-------|-------|
B|-------|-------|
G|-7-----|-7-----|
D|-------|-------|
A|-------|-------|
E|-------|-------|


Verse 2:


Avril (still doing piano intro)
                       G       Bm              G   Bm
I didn't get around to kiss you goodbye on the hand


Evan (still palm muting)
       G             Bm
e|------------|----------------|
B|------------|----------------|
G|------------|-4-pm(x3)-------|
D|-5-pm(x3)---|-4-pm(x3)-------| (x2)
A|-5-pm(x3)---|-2-pm(x3)-------|
E|-3-pm(x3)---|----------------|


Craig

e|---------|--------|
B|---8-7---|---8-7--|
G|-7-----7-|-7------|
D|---------|--------| (x2)
A|---------|--------|
E|---------|--------|


Avril (still doing piano intro)
                   G            Bm              G   Bm
I wish that I could see you again I know that I can't oh


Evan (still palm muting)
       G             Bm
e|------------|----------------|
B|------------|----------------|
G|------------|-4-pm(x3)-------|
D|-5-pm(x3)---|-4-pm(x3)-------| (x2)
A|-5-pm(x3)---|-2-pm(x3)-------|
E|-3-pm(x3)---|----------------|


Craig

e|---------|--------|
B|---8-7---|---8-7--|
G|-7-----7-|-7------|
D|---------|--------| (x2)
A|---------|--------|
E|---------|--------|


Refrain 2: (Avril and Craig only)


Avril (still doing in refrain 1)
C                G      C              G
  I hope you can hear me I remember it clearly


Craig
       C            G           C               G
e|------------|-------------|------------|------------|
B|-5~----5----|-------------|--8---------|------------|
G|-5~---------|-----4-5-7-5-|----7-------|------------|
D|-5~---------|-5-----------|------------|-----5-2----|
A|------------|-5-----------|------------|---5--------|
E|------------|-3-----------|------------|------------|


Chorus 2:


Avril (Em-Am-G-D in piano) (x2)


Evan
      Em        Am        G         D
e|----0----|----0----|----3----|----2----|
B|----0----|----1----|----3----|----3----|
G|----0----|----2----|----0----|----2----|
D|----2----|----2----|----0----|----0----| (x2)
A|----2----|----0----|----2----|----x----|
E|----0----|----x----|----3----|----x----|


Craig
      Em        Am        G         D
e|------5~-|----0----|------12~|-------12~-|
B|----0----|----1----|----3----|-----------|
G|---------|----2----|----4----|-----------|
D|---------|----2----|----5----|----12-----|(x2)
A|---------|----0----|----5----|----12-----|
E|---------|----x----|---------|----10-----|


Bridge:


Avril
      Am             Em                G             C
And I had my wake up won't you wake up I keep asking why


Evan
      Am        Em        G         C
e|---------|---------|---------|---------|
B|---------|---------|---------|---------|
G|---------|---------|---------|-5(x6)---|
D|-7(x6)---|-2(x6)---|-5(x6)---|-5(x6)---|
A|-7(x6)---|-2(x6)---|-5(x6)---|-3(x6)---|
E|-5(x6)---|-0(x6)---|-3(x6)---|---------|


Craig
e|---------|---------|---------|----------|
B|---------|-8-------|-8-------|----------|
G|-4-------|---------|---------|----------|
D|---------|---------|---------|-------5~-|
A|---------|---------|---------|-2h3/5----|
E|---------|---------|---------|----------|


Avril
    Em                 D/F#           CM7                 D/F#
And I can't take it it wasn't fake it happened you passed by


Evan
      Em       D/F#      CM7       D/F#
e|---------|---------|---------|---------|
B|---------|---------|---------|---------|
G|---------|---------|-4(x6)---|---------|
D|-2(x6)---|-4(x6)---|-5(x6)---|-4(x6)---|
A|-2(x6)---|-5(x6)---|-3(x6)---|-5(x6)---|
E|-0(x6)---|-2(x6)---|---------|-2(x6)---|


Craig
e|---------|---------|---------|---------|
B|---5~----|-8h10p8--|-8-------|-----8---|
G|---------|---------|---------|-4-5-----|
D|-9-------|---------|---------|---------|
A|---------|---------|---------|---------|
E|---------|---------|---------|---------|


Avril
Em
Now you're gone now you're gone
D/F#
There you go There you go
CM7                         D/F#
Somewhere I can't bring you back


Evan
      Em       D/F#      CM7       D/F#
e|---------|---------|---------|---------|
B|---------|---------|---------|---------|
G|---------|---------|-4(x6)---|---------|
D|-2(x6)---|-4(x6)---|-5(x6)---|-4(x6)---|
A|-2(x6)---|-5(x6)---|-3(x6)---|-5(x6)---|
E|-0(x6)---|-2(x6)---|---------|-2(x6)---|


Craig
e|-------------|--------------------|
B|-8-8-8-8-8-8-|-10-10-10-10-10-10--|
G|--7-7-7-7-7-7|---7--7--7--7--7--7-|(x2)
D|-------------|--------------------|
A|-------------|--------------------|
E|-------------|--------------------|


Avril
Em
Now you're gone now you're gone
D/F#
There you go There you go
CM7                         D/F#
Somewhere you're not coming back


Evan
      Em       D/F#      CM7       D/F#
e|---------|---------|---------|---------|
B|---------|---------|---------|---------|
G|---------|---------|-4(x6)---|---------|
D|-2(x6)---|-4(x6)---|-5(x6)---|-4(x6)---|
A|-2(x6)---|-5(x6)---|-3(x6)---|-5(x6)---|
E|-0(x6)---|-2(x6)---|---------|-2(x6)---|


Craig
e|-------------|--------------------|
B|-8-8-8-------|-10-10-10-10----10--|
G|--7-7-7-5\4--|---7--7--7--7-5-----|
D|-------------|--------------------|
A|-------------|--------------------|
E|-------------|--------------------|


(Repeat chorus 2 twice but Craig will instead do the riff above)
In Chorus 2 second turn, Evan Backups at lines La Da Ra...


Outro:


Avril
   Na Na   Na Na Na    Na Na
       G            Bm
e|------------|----------------|
B|------------|----------------|
G|-4----4-----|-4----4---------|
D|------------|---2----2-------| (x2)
A|---5----5-2-|-2----2---2-----|
E|-3----3-----|----------------|

  G
I miss you
            
Submit corrections

comments powered by Disqus
↑ Back to top | Avril Lavigne Tabs for Slipped Away. Lyrics for acoustic guitar and electric guitar. 1 Tablatures and chords are parodies/interpretations of the original songs. You may use it for private study, scholarship, research or language learning purposes only