» » »

Avril Lavigne, Sk8er Boi Tabs (ver.12)

Artists:  A B C D E F G H I J K L M N O P Q R S T U V W X Y Z # 

Sk8er Boi Tabs (ver.12)

Avril Lavigne Tabs
Rating:
0/5 (0 votes)
Sk8er Boi lessons Tabs too difficult? Try these video lessons and learn fast
                This is like......my first tab ever!!  and i think i did a "okee" job dude!
anywho!  I LOVE AVRIL!!! BEST MUSIC AND HOTTEST GURL EVER!!
If you like gots any questions.....my icq # is 131037979 


  Intro 
      2x   		   third time        and play both of this twice!
e: -----------|		e: -----------|
B: --5h7p5----|		B: --5h7p5~---|
G: -----------|		G: ---------7-|
D: -----------|		D: -----------|
A: -----------|		A: -----------|
E: -----------|		E: -----------|

vers
    (* pm)   play each set twice
e: -------------------------------------------------------------------|
B: --**---------------------------------------------------------------|
G: --77-7--**-----**-----**-------------------------------------------|
D: --77-7--77-7---99-9---88-8-----------------------------------------|
A: --55-5--77-7---99-9---88-8-----------------------------------------|
E: --------55-5---77-7---66-6-----------------------------------------|          
                                                                       play two
                                                                       of this twice
e: -------------------------------------------------------------------|
B: --**---------------------------------------------------------------|
G: --77-7--**-----**------*--*----------------------------------------|
D: --77-7--77-7---99-9---10-10--10------------------------------------|
A: --55-5--77-7---99-9---10-10--10------------------------------------|
E: --------55-5---77-7----8--8---8------------------------------------|

  Verse 1 
e: ---------|
B: ---------|
G: ---------|
D: -0-2-4-0-| Once right before "He wanted her, she'd never tell" and
A: ---------| once right before "But all of the friends, stuck up their nose
E: ---------| 

Chorus   listen for the strumming pattern
e: ------------------------------------------------------------------------------|
B: ------------------------------------------------------------------------------|
G: --10--------------------------------------------------------------------------|
D: --10-----10------8-------7----------------------------------------------------|
A: ---8-----10------8-------7----------------------------------------------------|
E: ----------8------6-------5----------------------------------------------------|

e: -13-13-13-13-13--13\-|  
b: ---------------------|
G: ---------------------|
D: ---------------------|
A: ---------------------|
E: ---------------------|

e: ------------------------------2--------------------|
B: ---7-10-7--------2-5-2------3---3------------8-----|
G: -------------------------------------------8---8---|
D: ---------------------------------------------------|
A: ---------------------------------------------------|
E: ---------------------------------------------------|

e: ---------------------------------14-----------------|
B: ---7-10-7--------2-5-2--------15----15--------------|
G: ----------------------------------------------7--7--|
D: ----------------------------------------------7--7--|
A: ----------------------------------------------5--5--|
E: ----------------------------------------------------|

e: ------------------------------2--------------------|
B: ---7-10-7--------2-5-2------3---3----------8-------|
G: -----------------------------------------8---8-----|
D: ---------------------------------------------------| play this again and then.....
A: ---------------------------------------------------|
E: ---------------------------------------------------|

e: ---------------------------------|
B: ---8-----------------------------|
G: ------9---------0----------------|
D: ---------10---------2------------|
A: ------------------------3--------|
E: ----------------------------3----|

Chorus   strum each set  about 7 times
e: ------------------------------------------------------------------------------|
B: ------------------------------------------------------------------------------|
G: --10--------------------------------------------------------------------------|
D: --10-----10------8-------7----------------------------------------------------|
A: ---8-----10------8-------7----------------------------------------------------|
E: ----------8------6-------5----------------------------------------------------|

e: -13-13-13-13-13----------------------|  
b: -------------------------------------|
G: ------------------10--10-10----------|
D: ------------------10--10-10----------|
A: -------------------8---8--8----------|
E: -------------------------------------|

   .....3x   mad bending on 10      ....3x		   
e: -------------------------|   e:------------------------|
B: ---8/10------------------|   B:---8/10-----------------|
G: ------------7-7-7-7------|	G:-------------7-7--------|
D: ------------7-7-7-7------|   D:-------------7-7--7-----|
A:-------------5-5-5-5------|	A:-------------5-5--7-----|		
E: -------------------------|   E:------------------5-----|
   

e: ---------10-------|
B: -7---10------10---|
G: ------------------| 3x
D: ------------------|
A: ------------------|
E: ------------------|
            

comments powered by Disqus
↑ Back to top | Avril Lavigne Tabs for Sk8er Boi. Lyrics for acoustic guitar and electric guitar. Tablatures and chords are parodies/interpretations of the original songs. You may use it for private study, scholarship, research or language learning purposes only