» » »

Sk8er Boi Tabs (ver.3)

Artists:  A B C D E F G H I J K L M N O P Q R S T U V W X Y Z # 

Sk8er Boi Tabs (ver.3)

Avril Lavigne
Rating:
0/5 (0 votes)

Hard to play? Try these video lessons and learn fast.
                Avril Lavigne
Sk8ter Boi
E A D G B E

Intro (Gtr. 1)
G|-7------------------------------------|
D|-7-----7-----9-----9-----8-----7------|
A|-5(5x)-7-----9-----9-----8-----7------|
E|-------5(5x)-7(5x)-7(5x)-6(5x)-5(5x)--|

Intro (Gtr. 2)
B|--5h7p5--|----|--5h7p5-----|
G|---------|-3x-|---------7--|

Verse 1 (he was a boy..)
G|-7---------------------------7----------------------------|
D|-7------7------9------8------7------7------9------10------|
A|-5(4x)--7------9------8------5(4x)--7------9------10------|
E|--------5(8x)--7(8x)--6(5x)---------5(6x)--7(4x)--8-(5x)--|

Verse 2 (he wanted her..)
G|-7----------------------------|
D|-7------7------9------10------|
A|-5(8x)--7------9------10------|
E|--------5(8x)--7(6x)--8-(8x)--|

Chorus (he was a skater boy..)
G|---------------3------2--------------------3-------2------3--|
D|-3------5------3------2------3------5------3-------2------3--|
A|-3------3------1(8x)--0(6x)--3------3------1(10x)--0(4x)--1--|
E|-1(3x)--3(8x)----------------1(3x)--3(8x)--------------------|

(five years from now..) - Do Verse 1 & 2

Interlude (Gtr. 1)
B|--8h10p8--|-6x-|

Interlude (Gtr. 2)
G|-7--------------------3------2------7------|----|
D|-7------3------5------3------2------7------|----|
A|-5(5x)--3------3------1(3x)--0(4x)--5(8x)--|-2x-|
E|--------1(8x)--3(8x)-----------------------|----|

(he's just a boy..) - Do Verse 1

(I'm with a skater boy..) - Do Chorus
            
Hard to play? Try these video lessons and learn fast. | Correct




comments powered by Disqus
↑ Back to top | Tablatures and chords are parodies/interpretations of the original songs. You may use it for private study, scholarship, research or language learning purposes only