» » »

Skater Boi Bass tabs (ver.1)

Artists:  A B C D E F G H I J K L M N O P Q R S T U V W X Y Z # 

Skater Boi Bass tabs (ver.1)

Avril Lavigne
Rating:
0/5 (0 votes)

Hard to play? Try these video lessons and learn fast.
                (1)
Standard Tuning EADG

goes like this:

verse:

G
D
A-5-5-5-5-5-5-5-5
E-----------------5-5-5-5-5-5-5-5-7-7-7-7-7-7-7-7-6-6-6-6-6-6-6

G
D
A-5-5-5-5-5-5-5-5
E-----------------5-5-5-5-5-5-5-5-7-7-7-7-7-7-7-7-8-8-8-8-8-8-8-8

Chorus:

G
D
A-----------------3-3-3-3-3-3-3-3-1-1-1-1-1-1-1-1-0-0-0-0-0-0-0-0
E-1-1-1-1-1-1-1-1

Then there is the part before the bridge:

G
D
A-----------------3-3-3-3-3-3-3-3-1-1-1-1-1-1-1-1-4-4-4-4
E-1-1-1-1-1-1-1-1

Bridge:

The Bridge is a play off the chorus, just lengthen the time on the notes a bit and you basically have it.

The part near the end, once again, plays off the verse:

G
D
A-5-5----
E-----5-5-7-7-6-6


then it goes back to verse again.



Thats all of it, your gonna have to listen to the song to get the timing right and how many times you play each part, but the notes are all here.



thank you

Juan
            
Hard to play? Try these video lessons and learn fast. | Correct




comments powered by Disqus
↑ Back to top | Tablatures and chords are parodies/interpretations of the original songs. You may use it for private study, scholarship, research or language learning purposes only