» » »

Avril Lavigne, Sk8er Boi Tabs (ver.7)

Artists:  A B C D E F G H I J K L M N O P Q R S T U V W X Y Z # 

Sk8er Boi Tabs (ver.7)

Avril Lavigne Tabs
Rating:
0/5 (0 votes)
Sk8er Boi lessons Tabs too difficult? Try these video lessons and learn fast
                Another corrected and re-ordered tab, makes it much easier.
Many thanks to others who have made this possible for me.

   Intro solo:
   3x       		   1x
e: -----------|		e: -----------|
B: -(5)-7-5-5-|		B: -(5)-7-5---|
G: -----------|		G: ---------7-|
D: -----------|		D: -----------|
A: -----------|		A: -----------|
E: -----------|		E: -----------|

   Intro Chords:2x
e: --------------------------------------|
B: --------------------------------------|
G: -77777777-----------------------------|
D: -77777777-77777777-99999999-8888-7777-|
A: -55555555-77777777-99999999-8888-7777-|
E: ----------55555555-77777777-6666-5555-|

   Verse 1 Solo: 
e: ---------|
B: ---------|
G: ---------|
D: -0-2-4-0-| Once right before "He wanted her, she'd never tell" and
A: ---------| once right before "But all of the friends, stuck up their nose
E: ---------| 

   Verse 1 Chords: 2x
e: -------------------------------------------------------------------------|
B: -------------------------------------------------------------------------|
G: -77777777----------------------------77777777-------------------55555555-|
D: -77777777-77777777-99999999-88888888-77777777-77777777-99999999-55555555-|
A: -55555555-77777777-99999999-88888888-55555555-77777777-99999999-33333333-|
E: ----------55555555-77777777-66666666----------55555555-77777777----------|
   Palm Muted, sometimes let go

   Chorus 1 Chords: 
   2x					 1x
e: -------------------------------------|----------|	 	
B: -------------------------------------|----------|
G: ----------55555555-33333333-22222222-|-33333333-|
D: -33333333-55555555-33333333-22222222-|-33333333-|
A: -33333333-33333333-11111111-00000000-|-11111111-|
E: -11111111----------------------------|----------|

   Chorus 1 Solo All the way at the end: 1x

e: -13-13-13-13-13-13-13-13\-| *not sure about how much times. 
b: --------------------------|
G: --------------------------|
D: --------------------------|
A: --------------------------|
E: --------------------------|

  Verse 2 Solo's:
   4x the second time the 3-2-3 is once turned to*: 			   
e: ------------------2---|*----14----|-----8-----|
B: -7-10-7--2-5-2--3---3-| -15----15-|-5~~---8-5-| play this at the end
G: ----------------------| ----------|-----------|
D: ----------------------| ----------|-----------|
A: ----------------------| ----------|-----------|
E: ----------------------| ----------|-----------|

   Verse 2 Chords: 2x
e: -------------------------------------------------------------------------|
B: -------------------------------------------------------------------------|
G: -77777777----------------------------77777777-------------------55555555-|
D: -77777777-77777777-99999999-88888888-77777777-77777777-99999999-55555555-|
A: -55555555-77777777-99999999-88888888-55555555-77777777-99999999-33333333-|
E: ----------55555555-77777777-66666666----------55555555-77777777----------|
   Palm Muted, sometimes let go

   Chorus 2 Chords: 2x
   2x					 1x
e: -------------------------------------|----------|	 	
B: -------------------------------------|----------|
G: ----------55555555-33333333-22222222-|-33333333-|
D: -33333333-55555555-33333333-22222222-|-33333333-|
A: -33333333-33333333-11111111-00000000-|-11111111-|
E: -11111111----------------------------|----------|

   Chorus 2 Solo All the way at the end: 1x

e: -13-13-13-13-13-13-13-13\-| *not sure about how much times. 
b: --------------------------|
G: --------------------------|
D: --------------------------|
A: --------------------------|
E: --------------------------|

   pre-bridge:
   6x       		   
e: ------------|		
B: -(8)-10-8-8-|		
G: ------------|		
D: ------------|		
A: ------------|		
E: ------------|		

   pre-bridge Chords:2x
e: ------------------------------------|
B: ------------------------------------|
G: ----------55555555-33333333-6-6-6-6-|
D: -33333333-55555555-33333333-6-6-6-6-|
A: -33333333-33333333-11111111-4-4-4-4-|
E: -11111111---------------------------|

   Bridge Chords: 2x
e: -----------------------------|
B: -----------------------------|
G: -7-----------5-----3----2----|
D: -5-16x-3-----5-16x-3-8x-2-8x-|
A: -5-----3-16x-3-----1----0----|
E: -------1---------------------|

  
   Verse 3 Solo:
e: ---------|
B: ---------|
G: ---------|
D: -0-2-4-0-| once just before "We are in love, haven't you heard"
A: ---------| 
E: ---------|

   Then soft Verse chords 3:
e: ------------------------------------------------------------------|
B: ------------------------------------------------------------------|
G: -77777777----------------------------77777777-------------------5-|
D: -77777777-77777777-99999999-88888888-77777777-77777777-99999999-5-|
A: -55555555-77777777-99999999-88888888-55555555-77777777-99999999-3-|
E: ----------55555555-77777777-66666666----------55555555-77777777---|
   little palm mute/block

   Chorus 3 Chords: 2x
   2x					 1x
e: -------------------------------------|----------|	 	
B: -------------------------------------|----------|
G: ----------55555555-33333333-22222222-|-33333333-|
D: -33333333-55555555-33333333-22222222-|-33333333-|
A: -33333333-33333333-11111111-00000000-|-11111111-|
E: -11111111----------------------------|----------|

   End On:
e: ---|
B: ---|
G: -3-|
D: -3-|
A: -1-|  
E: ---|
            
Submit corrections

comments powered by Disqus
↑ Back to top | Avril Lavigne Tabs for Sk8er Boi. Lyrics for acoustic guitar and electric guitar. Tablatures and chords are parodies/interpretations of the original songs. You may use it for private study, scholarship, research or language learning purposes only