» » »

Avril Lavigne, Sk8er Boi Tabs (ver.6)

Artists:  A B C D E F G H I J K L M N O P Q R S T U V W X Y Z # 

Sk8er Boi Tabs (ver.6)

Avril Lavigne Tabs
 Rating:
4/5 (4 votes)
Sk8er Boi lessons Tabs too difficult? Try these video lessons and learn fast
1
                "S8ter Boi" by: Avril Lavigne                            July 25, 2002

(pm)=palm mute

--------------------------------|------------------------------------|
--------------------------------|---------------------------7(slide)-|
-7(x8)--------------------------|-(repeat)------------------7--------|
-7-----7(x8)-9(x8)-8(x4)-7(x4)--|---------------------------5--------|
-5-----7-----9-----8-----7------|------------------------------------|
-------5-----7-----6-----5------|------------------------------------|

---------------------------------------------------------------------|
---------------------------------------(pm)-7(x8)--------------------|
-7(x8)--------------------------------------7-----7(x8)-9(x8)-8(x8)--|
-7-----7(x8)-9(x8)-10(x8)-------------------5-----7-----9-----8------|
-5-----7-----9-----10-----------------------------5-----7-----6------|
-------5-----7-----8-------------------------------------------------|

        He was a boy, she was....He was a punk and she did ballet.... 

---------------------------------------------------------------------|
---------------------------------------(pm)-7(x8)--------------------|
-7(x8)--------------------------------------7-----7(x8)-9(x8)-8(x8)--|
-7-----7(x8)-9(x8)-10(x8)-------------------5-----7-----9-----8------|
-5-----7-----9-----10-----------------------------5-----7-----6------|
-------5-----7-----8-------------------------------------------------|

        He wanted her, but........and all of her friends, stuck up....

--------------------------------------------------------------2(x8)--|
-------------------2(x8)--------------------------5(x8)-3(x8)-2------|
-------5(x8)-3(x8)-2-----3(x16)-------------3(x8)-5-----3-----2------|
-3(x8)-5-----3-----2-----3------------------3-----3-----1-----0------|
-3-----3-----1-----0-----1----------------- 1------------------------|
-1-------------------------------------------------------------------|

        He was a skater boy.......she had a pretty face, but her.....

---------------------------------------------------------------------|
---------------------------------------(pm)-7(x8)--------------------|
-7(x8)--------------------------------------7-----7(x8)-9(x8)-8(x8)--|
-7-----7(x8)-9(x8)-10(x8)-------------------5-----7-----9-----8------|
-5-----7-----9-----10-----------------------------5-----7-----6------|
-------5-----7-----8-------------------------------------------------|

        Five days from now........She turns on t.v., and guess who....

---------------------------------------------------------------------|
---------------------------------------(pm)-7(x8)--------------------|
-7(x8)--------------------------------------7-----7(x8)-9(x8)-8(x8)--|
-7-----7(x8)-9(x8)-10(x16)------------------5-----7-----9-----8------|
-5-----7-----9-----10-----------------------------5-----7-----6------|
-------5-----7-----8-------------------------------------------------|

        She calls up her..........She tags along, and stands in.......

--------------------------------------------------------------2(x8)--|
-------------------2(x8)--------------------------5(x8)-3(x8)-2------|
-------5(x8)-3(x8)-2------------------------3(x8)-5-----3-----2------|
-3(x8)-5-----3-----2------------------------3-----3-----1-----0------|
-3-----3-----1-----0----------------------- 1------------------------|
-1-------------------------------------------------------------------|

        He was a skater boy.......And now he's a superstar, slammin...

--------------------------------------------------------------2(x8)--|
-------------------2(x8)--------------------------5(x8)-3(x8)-2------|
-------5(x8)-3(x8)-2-----3(x8)--------------3(x8)-5-----3-----2------|
-3(x8)-5-----3-----2-----3------------------3-----3-----1-----0------|
-3-----3-----1-----0-----1----------------- 1------------------------|
-1-------------------------------------------------------------------|

        He was a skater boy.......And now he's a superstar, slammin...

---------------------------------------------------------------------|
-----------------------2--------------------------5(x8)-3(x8)-6-6-6-5|
-------5(x8)-3(x8)-6-6-2--------------------3(x8)-5-----3-----6-6-6-5|
-3(x8)-5-----3-----6-6-2--------------------3-----3-----1-----4-4-4-3|
-3-----3-----1-----4-4-0--------------------1------------------------|
-1-------------------------------------------------------------------|



-5(x16)-------------------------------------6------------------2(x8)-|
-6-------------------2(x8)------------------7-----5(x32)-3(x8)-2-----|
-7------5(x32)-3(x8)-2----------------------7-----5------3-----2-----|
-7------5------3-----2----------------------5-----3------1-----0-----|
-5------3------1-----0-----------------------------------------------|
---------------------------------------------------------------------|

       Sorry girl but you've......Too bad that you couldn't see.......

---------------------------------------------------------------------|
---------------------------------------(pm)-7(x8)--------------------|
-7(x8)--------------------------------------7-----7(x8)-9(x8)-8(x8)--|
-7-----7(x8)-9(x8)-10-----------------------5-----7-----9-----8------|
-5-----7-----9-----10-----------------------------5-----7-----6------|
-------5-----7-----8-------------------------------------------------|

       He's just a boy, and I'm...We are in love, haven't you heard...

--------------------------------------------------------------2(x8)--|
-------------------2(x8)--------------------------5(x8)-3(x8)-2------|
-------5(x8)-3(x8)-2------------------------3(x8)-5-----3-----2------|
-3(x8)-5-----3-----2------------------------3-----3-----1-----0------|
-3-----3-----1-----0----------------------- 1------------------------|
-1-------------------------------------------------------------------|

       I'm with the skater boy....I'll be at a studio, singing........

--------------------------------------------------------------2(x8)--|
-------------------2(x8)--------------------------5(x8)-3(x8)-2------|
-------5(x8)-3(x8)-2-----3-(ring)-----------3(x8)-5-----3-----2------|
-3(x8)-5-----3-----2-----3------------------3-----3-----1-----0------|
-3-----3-----1-----0-----1----------------- 1------------------------|
-1-------------------------------------------------------------------|

       I'm with the skater boy....I'll be at a studio, singing........


Avril is new to the music scene but she came in with a bang...S8ter Boi is 
a great song. This is the first tab I have ever done and I am almost POSITIVE 
that it is right. If you have any complaints I can take CONSTRUCTIVE critisism :)....--->
            
Submit corrections

comments powered by Disqus
↑ Back to top | Avril Lavigne Tabs for Sk8er Boi. Lyrics for acoustic guitar and electric guitar. 1 Tablatures and chords are parodies/interpretations of the original songs. You may use it for private study, scholarship, research or language learning purposes only