» » »

Avril Lavigne, Not Enough Tabs (ver.1)

Artists:  A B C D E F G H I J K L M N O P Q R S T U V W X Y Z # 

Not Enough Tabs (ver.1)

Avril Lavigne Tabs
Rating:
0/5 (0 votes)
Not Enough lessons Tabs too difficult? Try these video lessons and learn fast
                Not enough by Avril Lavigne.
It's my first tab, i hope you like it.



INTRO


|---------------|---------------|---------------|------------------|
|-----3-------3-|-----3-------3-|-----3-------3-|-----3--------2-3-|
|-------2-------|-------2-------|-------2-------|-------2----------|
|-0-0-----0-0---|-0-0-----0-0---|---------------|------------------|
|---------------|---------------|-0-0-----0-0---|-0-0------0-0-----|
|---------------|---------------|---------------|------------------|



|---------------|---------------|---------------|------------------|
|-----3-------3-|-----3-------3-|-----3-------3-|-----3--------2-3-|
|-------2-------|-------2-------|-------2-------|-------2----------|
|---------------|---------------|---------------|------------------|
|-2-2-----2-2---|-2-2-----2-2---|---------------|------------------|
|---------------|---------------|-3-3-----3-3---|-3-3------3-3-----|



VERSE


|------------------|--5-5-3-3-3-2-2-2-0-----|5-5-5-5-3-3-2-2----|
|--------3-------5-|--------------------3-3-|-------------------|
|--2-2-2---2-2-2---|2-----------------------|-------------------| 
|------------------|------------------------|-------------------|
|------------------|------------------------|-------------------|
|------------------|------------------------|-------------------|



|--------------------|--5-5-3-3-3-2-2-2-0-----|5-5-5-5-3-3-2-2---3-2|
|----------3-------5-|--------------------3-3-|---------------------|
|--2-2-2-2---2-2-2---|2-----------------------|---------------------|
|--------------------|------------------------|---------------------|
|--------------------|------------------------|---------------------|
|--------------------|------------------------|---------------------|




CHORUS

|0-2-0-2--0-2-0-2-0-3-2---|5-3-2-3-2-|0-2-0-2--0-2-0-2-0-3-2---|5-3-3-3-2-2-|
|-----------------------3-|----------|-----------------------3-|------------|
|-------------------------|----------|-------------------------|------------|
|-------------------------|----------|-------------------------|------------|
|-------------------------|----------|-------------------------|------------|
|-------------------------|----------|-------------------------|------------|



|2-10-2-2-3-5-5-3-2-0-|5-7-9-10|2-2-3-5-5-3-2-0|
|---------------------|--------|---------------|
|---------------------|--------|---------------|
|---------------------|--------|---------------|
|---------------------|--------|---------------|
|---------------------|--------|---------------|
            
Submit corrections

comments powered by Disqus
↑ Back to top | Avril Lavigne Tabs for Not Enough. Lyrics for acoustic guitar and electric guitar. Tablatures and chords are parodies/interpretations of the original songs. You may use it for private study, scholarship, research or language learning purposes only