>
 >
Not Enough

Not Enough Bass Tabs

Avril Lavigne - Not Enough chords, tabs, tablatures, lyrics

Guitar lessons | Add/correct | Request | Top 50 tabs Artists:  A B C D E F G H I J K L M N O P Q R S T U V W X Y Z 0-9

Not Enough Bass Tabs – Avril Lavigne

CD, Sheet music, Poster

Do you like Not Enough? Share with your friends now
Bass TabsChordsChords v2TabsTabs v2Ukulele
Avril Lavigne
Not Enough
Goodbye Lullaby
2011 RCA Records

Key: D

Tuning: Drop D DADG

Intro: Idle

Verse 1:
You didn't listen, you didn't hear me
          D                A
G|-7-7-7-7-7-7-7-7-|-----------------|
D|-----------------|-7-7-7-7-7-7-7-7-|
A|-----------------|-----------------|
D|-----------------|-----------------|
          x2               x2

But I said I want more and I got
no more You were stealing me away oh
          Bm                G
G|-----------------|-----------------|
D|-9-9-9-9-9-9-9-9-|-5-5-5-5-5-5-5-5-|
A|-----------------|-----------------|
D|-----------------|-----------------|
          x2                x2


Refrain 1:
It's not enough It's not enough
         Bm                 G
G|-4-4-4-4-4-4-4-4-|-----------------|
D|-----------------|-5-5-5-5-5-5-5-5-|
A|-----------------|-----------------|
D|-----------------|-----------------|

to give me what it is I want
          D                A/C#
G|-7-7-7-7-7-7-7-7-|-6-6-6-6-6-6-6-6-|
D|-----------------|-----------------|
A|-----------------|-----------------|
D|-----------------|-----------------|

It's not enough It's not enough
         Bm                 G
G|-4-4-4-4-4-4-4-4-|-----------------|
D|-----------------|-5-5-5-5-5-5-5-5-|
A|-----------------|-----------------|
D|-----------------|-----------------|

to give me everything I need
          D             A/C#
G|-----------------|-----------|
D|-----------------|-----------|
A|-5-5-5-5-5-5-5-5-|-4-4-4-4-4-|
D|-----------------|-----------|


Chorus 1:
And I
         Bm                 G
G|-----------------|-----------------|
D|-----------------|-----------------|
A|-----------------|-----------------|
D|-9-9-9-9-9-9-9-9-|-5-5-5-5-5-5-5-5-|

I wish it was
         D                  A
G|-----------------|-----------------|
D|-----------------|-----------------|
A|-----------------|-----------------|
D|-0-0-0-0-0-0-0-0-|-7-7-7-7-7-7-7-7-|

I think it's time
         Bm                 G
G|-----------------|-----------------|
D|-----------------|-----------------|
A|-----------------|-----------------|
D|-9-9-9-9-9-9-9-9-|-5-5-5-5-5-5-5-5-|

To give this up
         D                  A
G|-----------------|-----------------|
D|-----------------|-----------------|
A|-----------------|-----------------|
D|-0-0-0-0-0-0-0-0-|-7-7-7-7-7-7-7-7-|


Post chorus: oh oh oh oh
        D               A
G|--------------|--------------|
D|--------------|--------------|
A|--------------|--------------|
D|-0-0-0--0-0-0-|-7-7-7--7-7-7-|
        x2              x2

        Bm              G
G|--------------|--------------|
D|--------------|--------------|
A|--------------|--------------|
D|-9-9-9--9-9-9-|-5-5-5--5-5-5-|
        x2              x2


Verse 2:
All the memories that we're losing
        D               A
G|--------------|--------------|
D|--------------|--------------|
A|--------------|--------------|
D|-0-0-0--0-0-0-|-7-7-7--7-7-7-|
        x2              x2

All the time that we spent with you everyday
        Bm              G
G|--------------|--------------|
D|--------------|--------------|
A|--------------|--------------|
D|-9-9-9--9-9-9-|-5-5-5--5-5-5-|
        x2              x2

I'm feeling that we're fading
        D               A
G|--------------|--------------|
D|--------------|--------------|
A|--------------|--------------|
D|-0-0-0--0-0-0-|-7-7-7--7-7-7-|
        x2              x2

Donít make this as
hard as you think youíd be
Itís a lot easier
than it seems yeah
        Bm              G
G|--------------|--------------|
D|--------------|--------------|
A|--------------|--------------|
D|-9-9-9--9-9-9-|-5-5-5--5-5-5-|
        x2              x2


Refrain 2:
It's not enough It's not enough
         Bm                 G
G|-----------------|-----------------|
D|-----------------|-----------------|
A|-----------------|-----------------|
D|-9-9-9-9-9-9-9-9-|-5-5-5-5-5-5-5-5-|

to give me what it is I want
          D                A/C#
G|-----------------|-----------------|
D|-----------------|-----------------|
A|-5-5-5-5-5-5-5-5-|-4-4-4-4-4-4-4-4-|
D|-----------------|-----------------|

It's not enough It's not enough
         Bm                 G
G|-----------------|-----------------|
D|-----------------|-----------------|
A|-----------------|-----------------|
D|-9-9-9-9-9-9-9-9-|-5-5-5-5-5-5-5-5-|

to give me Everything I need
          D             A/C#
G|-----------------|-----------|
D|-----------------|-----------|
A|-5-5-5-5-5-5-5-5-|-4-4-4-4-4-|
D|-----------------|-----------|


(Repeat Chorus 1)


Bridge:
And I can feel it falling
down slowly slowly
  Em   D/F#  G  F#m
G|---|-----|---|----|
D|---|-----|---|----|
A|---|-----|---|----|
D|-2-|--4--|-5-|-4--|

I can see youíre
starting to drown
Canít stop it now
  Em   D/F#  G  F#m
G|---|-----|---|----|
D|---|-----|---|----|
A|---|-----|---|----|
D|-2-|--4--|-5-|-4--|

I can see you burning out
         Em             D/F#
G|---------------|---------------|
D|---------------|---------------|
A|---------------|---------------|
D|-2-2--2-2-2--2-|-4-4--4-4-4--4-|

So show me show me
         G              F#m
G|---------------|---------------|
D|---------------|---------------|
A|---------------|---------------|
D|-5-5--5-5-5--5-|-4-4--4-4-4--4-|

How are you gonna turn it
         Em             D/F#
G|---------------|---------------|
D|---------------|---------------|
A|-7-7--7-7-7--7-|-9-9--9-9-9--9-|
D|---------------|---------------|

around because
            G                       A
G|---------------------|-------------------------|
D|---------------------|-------------------------|
A|-10-10--10-10-10--10-|-12-12-12-12-12-12-12-12-|
D|---------------------|-------------------------|


Refrain 2:
It's not enough It's not enough
   Bm  G
G|-4-|---|
D|---|-5-|
A|---|---|
D|---|---|

to give me what it is I want
   D   A/C#
G|-7-|-6-|
D|---|---|
A|---|---|
D|---|---|


It's not enough It's not enough
         Bm                 G
G|-4-4-4-4-4-4-4-4-|-----------------|
D|-----------------|-5-5-5-5-5-5-5-5-|
A|-----------------|-----------------|
D|-----------------|-----------------|

to give me everything I need
          D             A/C#
G|-----------------|-----------|
D|-----------------|-----------|
A|-5-5-5-5-5-5-5-5-|-4-4-4-4-4-|
D|-----------------|-----------|


Chorus 2:
It's not enough It's not enough
         Bm                 G
G|-----------------|-----------------|
D|-----------------|-----------------|
A|-----------------|-----------------|
D|-9-9-9-9-9-9-9-9-|-5-5-5-5-5-5-5-5-|

to give me what it is I want
         D                  A
G|-----------------|-----------------|
D|-----------------|-----------------|
A|-----------------|-----------------|
D|-0-0-0-0-0-0-0-0-|-7-7-7-7-7-7-7-7-|

It's not enough It's not enough
         Bm                 G
G|-----------------|-----------------|
D|-----------------|-----------------|
A|-----------------|-----------------|
D|-9-9-9-9-9-9-9-9-|-5-5-5-5-5-5-5-5-|

to give me everything I need
         D                  A
G|-----------------|-----------------|
D|-----------------|-----------------|
A|-----------------|-----------------|
D|-0-0-0-0-0-0-0-0-|-7-7-7-7-7-7-7-7-|


(Repeat Chorus 1)
(Repeat Chorus 2 twice)


Outro: Silence
oh oh oh umm umm umm oh oh oh
   Bm   G    D   A/C#
G|-19-|-14-|-14-|-14-|
D|-21-|-17-|-12-|-11-|
A|----|----|----|----| x2
D|----|----|----|----|





Comments


Popular Avril Lavigne tabs & chords
Darlin 1 Chords
Heres To Never Growing Up 10 Chords
Hot 2 Chords
Hot 3 Chords
Losing Grip 1 Chords
One Of Those Girls Chords
Take It Chords
Things I Will Never Say Chords
Darlin Ukulele
Smile Ukulele


Song lyrics



↑ Back to top | Tablatures and chords are parodies/interpretations of the original songs. You may use it for private study, scholarship, research or language learning purposes only
© 2014 AZChords.com Contact us | Privacy policy | DMCA | Add/correct tabs | Request tabs | Top 50 tabs