» » »

Hot Tabs (ver.2)

Artists:  A B C D E F G H I J K L M N O P Q R S T U V W X Y Z # 

Hot Tabs (ver.2)

Avril Lavigne
Rating:
0/5 (0 votes)

Hard to play? Try these video lessons and learn fast.
                Avril Lavigne
Hot
The Best Damn Thing
2007 RCA Records


Key: G#


Tuning: Drop D, with this tuning you can also play FREAK OUT, GIRLFRIEND and THE BEST 
THING

x - means palm mute


Intro: Ahhh, you're so good to me baby!!!

Guitar 1:
e|-----------------------------------------------|
B|-----------------------------------------------|
G|-------------------------3--3--x-x---6--6--x-x-|
D|-6--6--x-x---1--1--x-x---3--3--x-x---6--6--x-x-|
A|-6--6--x-x---1--1--x-x---1--1--x-x---4--4--x-x-|
D|-6--6--x-x---1--1--x-x-------------------------|
then
e|---------------------------------------|
B|---------------------------------------|
G|-------------------------3--3--x-x---6-|
D|-6--6--x-x---1--1--x-x---3--3--x-x---6-|
A|-6--6--x-x---1--1--x-x---1--1--x-x---4-|
D|-6--6--x-x---1--1--x-x-----------------|

Guitar 2:
e|-4-4-----4-4---4-4-----6-6---4-4-----6-6---9-9-8-8-----|
B|-----4-4-----------4-4-----------4-4---------------9---|
G|-----------------------------------------------------8-|
D|-------------------------------------------------------|
A|-------------------------------------------------------|
D|-------------------------------------------------------|
then
e|-4-4-----4-4---4-4-----6-6---4-4-----6-6---4-|
B|-----4-4-----------4-4-----------4-4---------|
G|---------------------------------------------|
D|---------------------------------------------|
A|---------------------------------------------|
D|---------------------------------------------|


Verse 1: I want to lock you up in my closet...

Guitar 1: Palm muted
e|---------------------------------------|
B|---------------------------------------|
G|---------------------5-5-5-5---6-6-6-6-|
D|-6-6-6-6---3-3-3-3---5-5-5-5---6-6-6-6-| (x4)
A|-6-6-6-6---3-3-3-3---3-3-3-3---4-4-4-4-|
D|-6-6-6-6---3-3-3-3---------------------|

Guitar 2: Palm muted, will enter at 3rd and 4th time only
e|-----------------------------|
B|-----------------------------|
G|-5-5-5-5---5-5-5-5---6-6-6-6-|
D|-6-6-6-6---x-x-x-x---x-x-x-x-| (x2)
A|-6-6-6-6---3-3-3-3---4-4-4-4-|
D|-----------------------------|


Refrain: Now you're in, you can't et out...

Guitar 1:
e|-------------|
B|-------------|
G|-3--3---6--6-|
D|-3--3---6--6-|
A|-1--1---4--4-|
D|-------------|

Guitar 2: Feedback effect


Chorus: you make me so hot!!!

Guitar 1:
e|-----------------------------------------------|
B|-----------------------------------------------|
G|-------------3--3--x-x---6--6--x-x-------------|
D|-1--1--x-x---3--3--x-x---6--6--x-x---6--6--x-x-|
A|-1--1--x-x---1--1--x-x---4--4--x-x---6--6--x-x-|
D|-1--1--x-x---------------------------6--6--x-x-|
then
e|-----------------------------------|
B|-----------------------------------|
G|-------------3--3--x-x---6--6--x-x-|
D|-1--1--x-x---3--3--x-x---6--6--x-x-|
A|-1--1--x-x---1--1--x-x---4--4--x-x-|
D|-1--1--x-x-------------------------|

Guitar 2:
e|-------------------------------------4---6---3---4---|
B|---------------------------------------4---4---4---4-|
G|-8--8--x-x---6--6--x-x---6--6--x-x-------------------|
D|-x--x--x-x---x--x--x-x---x--x--x-x-------------------|
A|-6--6--x-x---8--8--x-x---4--4--x-x-------------------|
D|-----------------------------------------------------|
then
e|-----------------------------------|
B|-----------------------------------|
G|-8--8--x-x---6--6--x-x---6--6--x-x-|
D|-x--x--x-x---x--x--x-x---x--x--x-x-|
A|-6--6--x-x---8--8--x-x---4--4--x-x-|
D|-----------------------------------|


(Repeat Intro)


Verse 2: I can make you feel all better...

Guitar 1: Palm muted
e|---------------------------------------|
B|---------------------------------------|
G|---------------------5-5-5-5---6-6-6-6-|
D|-6-6-6-6---3-3-3-3---5-5-5-5---6-6-6-6-| (x4)
A|-6-6-6-6---3-3-3-3---3-3-3-3---4-4-4-4-|
D|-6-6-6-6---3-3-3-3---------------------|

Guitar 2:
e|-8-----8-----8---|
B|---9-9---9-9---9-|
G|-----------------|
D|-----------------| (x16)
A|-----------------|
D|-----------------|


(Repeat Refrain and Chorus)


Bridge: Kiss me gently...

Guitar 1: Clean
e|------------|---------|
B|------------|---------|
G|-3--6-------|-3--6----|
D|-3--6--6--1-|-3--6--6-|
A|-1--4--6--1-|-1--4--6-|
D|-------6--1-|-------6-|
      x3

Guitar 2: will enter at 2nd time and 3rd only
e|-------------------------------------|
B|-----1-------6h7p6-------------8h9p8-|
G|---3---3-------------8-6-5-----------|
D|-3---------6-------6---------8-------| x2
A|---------4-----------------6---------|
D|-------------------------------------|


(Repeat Chorus twice then intro)


Lyrics:

Chords used: Drop D only
G#5 - 666xxx
Eb5 - 111xxx
Bb5 - x133xx
C#5 - x466xx
F5 -  333xxx
C5 -  x355xx


Intro: x2
G#5 Eb5 Bb5  C#5
Ahh ahh ahh, you're so good to me (baby)


Verse 1:
G#5         F5                C5            C#5
  I want to lock you up in my closet, where no one's around
G#5         F5                  C5        C#5
  I want to put your hand in my pocket, because you're allowed
G#5         F5                 C5          C#5
  I want to drive you into the corner, and kiss you without a sound
G#5         F5               C5         C#5
  I want to stay this way forever, I'll say it loud
Bb5                C#5
  Now you're in and you can't get out


Chorus:
               Eb5               Bb5
You make me so hot Make me wanna drop
              C#5                  G#5
You're so ridiculous I can barely stop
             Eb5                        Bb5
I can hardly breathe You make me wanna scream
              C#5                     G#5
You're so fabulous, you're so good to me


(Repeat Intro)


Verse 2:
G#5              F5       C5           C#5
  I can make you feel all better, just take it in
G#5         F5               C5             C#5
  And I can show you all the places, you've never been
G#5         F5              C5       C#5
  And I can make you say everything, that you never said
G#5          F5         C5         C#5
  And I will let you do anything, again and again

Bb5                C#5
  Now you're in and you can't get out


(Repeat Chorus)


Bridge:
Bb5      C#5    G#5    Eb5
  Kiss me gently Always I know
Bb5      C#5     G#5         Eb5
  Hold me love me Don't ever go


Bb5-C#5-G#5-Eb5-Bb5-C#5-G#5


(Repeat Chorus twice then intro)
            
Hard to play? Try these video lessons and learn fast. | Correct




comments powered by Disqus
↑ Back to top | Tablatures and chords are parodies/interpretations of the original songs. You may use it for private study, scholarship, research or language learning purposes only