» » »

Avril Lavigne, Hot Bass tabs (ver.1)

Artists:  A B C D E F G H I J K L M N O P Q R S T U V W X Y Z # 

Hot Bass tabs (ver.1)

Avril Lavigne Tabs
4/5 (4 votes)
Hot lessons Tabs too difficult? Try these video lessons and learn fast
                Band: Avril Lavigne
Tuning 4-string: drop-d D A D G

G ----------------------------------------|
D ----------------------------------------|
A -----------1-1--4-4------------1-1--4~--|
D -6-6--1-1------------6-6--1-1-----------|

G ------------------------------------------|
D ------------------------------------------| 4x
A --------------------333333333-44444444----|
D -66666666-333333333-----------------------|

Pre Chorus
G -------------|
D -------------|
A --1-1---4-4--|
D -------------|

G ------------------------------------|
D ------------------------------------|
A ------1-1--4-4------------1-1--4-4--|
D -1-1------------6-6--1-1------------|

After Chorus
G --------------------------------------------------------|
D --------------------------------------------------------|
A ---------------1-1--1-4-4--4----------------1-1--1--4~--|
D -6-6--6-1-1--1----------------6-6--6-1-1--1-------------|

Verse 4x
Pre Chorus
After Chorus

Bridge...first only guitar then
G --------------------|    |----------------|
D --------------------| 2x |----------------|
A -1~---4~------------|    |-1~---4~--------|
D -----------6~---1~--|    |-----------6-6--|

Chorus 2x
After Chorus 1x

That's it
cool song
have Fun
Greetings ClosedRoad
Submit corrections

comments powered by Disqus
↑ Back to top | Avril Lavigne Bass for Hot. Lyrics for acoustic guitar and electric guitar. Tablatures and chords are parodies/interpretations of the original songs. You may use it for private study, scholarship, research or language learning purposes only