» » »

Avril Lavigne, Girlfriend Bass tabs (ver.2)

Artists:  A B C D E F G H I J K L M N O P Q R S T U V W X Y Z # 

Girlfriend Bass tabs (ver.2)

Avril Lavigne Tabs
 Rating:
4/5 (4 votes)
Girlfriend lessons Tabs too difficult? Try these video lessons and learn fast
1
                Avril LAvigne
Girlfriend
The Best Damn thing


Tuning: Drop D


Intro:
G|------------------------------------------|
D|------------------------------------5-----|
A|----------------------------------5---5---| (x2)
D|-0-0------0-0-0-4-4-4-4-4-5-5-5-5-------5-|


Verses: x2
G|-------------------------------------------------------|
D|-------------------------------------------------------|
A|-5-5-----5-5----5-5----5-5-----------------------------|
D|-------0------0------0------0-7-7--0-7-7--0-7-7--0-7-7-|
then
G|----------------------------------------------------------|
D|------4------4------4------5------------------------------|
A|-2-2----2-2----2-2----2-2---------------------------------|
D|-----------------------------5-5--0-5-5--0-5-5--0-5-4-2-4-|


Refrain:
G|-----------------------------------------------------------------|
D|-----------------------------------------------------------------|
A|-2-2-2-2-2-2-2-2-------------------------------------------------|
D|-----------------4-4-4-4-4-4-4-4-7-7-7-7-7-7-7-7-5-5-5-5-7-7-7-7-|


Chorus:
G|---------------------------------|---------------------------|
D|---------------------------------|---------------------5-----|
A|---------0-0-0-0-2-2-2-2---------|-------------------5---5---|
D|-0-0-0-0-----------------5-5-5-5-|-0-0-0-4-4-4-4-4-5-------5-|
            
Submit corrections

comments powered by Disqus
↑ Back to top | Avril Lavigne Bass for Girlfriend. Lyrics for acoustic guitar and electric guitar. 1 Tablatures and chords are parodies/interpretations of the original songs. You may use it for private study, scholarship, research or language learning purposes only