» » »

Avril Lavigne, Girlfriend Tabs (ver.1)

Artists:  A B C D E F G H I J K L M N O P Q R S T U V W X Y Z # 

Girlfriend Tabs (ver.1)

Avril Lavigne Tabs
 Rating:
4/5 (4 votes)
Girlfriend lessons Tabs too difficult? Try these video lessons and learn fast
                -------------------------------------------------------------------------------
-------------------------------------------------------------------------------
please rate? then i'll give you a cookie
i corrected some other peoples tabs cos they were sort of wrong
but mine might be wrong so yeah :)
its easier to play and sounds alright
HAVE FUN :]

Tuning:
standard
Intro

repeat this on every
clap for the intro
(when its just avril singing)
e----------------|---------------------------------------------------------|
B----------------|---------------------------------------------------------|
G--7-x-----------|----------77---------------------------------------------|
D--7-x-----------|----------77-77-7--5555555-------------------------------|
A--5-x-----------|----------55-77-7--5555555-------------------------------|
E----------------|-------------55-5--3333333-------------------------------|
*clap* .. HEY hey        | if you listen to the inro, you'll know when
          blah blah ..   | you have to play this :]

Verse

E--------------------------------------------------------------------|
B--------------------------------------------------------------------|
G-77-777-777-777-----------------------------------------------------|
D-77-777-777-777--77-777-777-777--99-999-999-999-55-555-555-555---X2-|
A-55-555-555-555--77-777-777-777--99-999-999-999-55-555-555-555------|
E-----------------55-555-555-555--77-777-777-777-33-333-333-333------|

PreChorus

E------------------------------------------------------------------|
B------------------------------------------------------------------|
G------------------------------------------------------------------|
D--9~---------------4~---------------7~---------------5~-----------|
A--9~---------------4~---------------7~---------------5~-----------|
E--7~---------------2~---------------5~---------------3~-----------|

Chorus

E-------------------------------------------------|
B-------------------------------------------------|
G--77--------------------77-----------------------|
D--77-7-77-99--5-55--X3--77-77-7-5555555----------|[This whole part is X2]
A--55-7-77-99--5-55------55-77-7-5555555----------|
E-----5-55-77--3-33---------55-5-3333333----------|
            
Submit corrections

comments powered by Disqus
↑ Back to top | Avril Lavigne Tabs for Girlfriend. Lyrics for acoustic guitar and electric guitar. Tablatures and chords are parodies/interpretations of the original songs. You may use it for private study, scholarship, research or language learning purposes only