» » »

Get Over It Tabs (ver.2)

Artists:  A B C D E F G H I J K L M N O P Q R S T U V W X Y Z # 

Get Over It Tabs (ver.2)

Avril Lavigne
Rating:
0/5 (0 votes)

Hard to play? Try these video lessons and learn fast.
                e|--------------------------------------------------------|
B|--------------------------------------------------------|
G|------------------------------------11--9--14--13--11---|
D|---11--12--11--9--11--12--11--9--7--9---7--12--11--9----|
A|---9---10--9---7--9---10--9---7--5----------------------|
E|--------------------------------------------------------|

Verse:                Or:
e|----------------|   e|---2--3--0--0---|
B|----------------|   B|---2--0--3--2---|
G|----------------|   G|---4--0--2--2---|
D|---4-----7------|   D|---4--0--0--2---|
A|---2--5--5--7---|   A|---2--2-----0---|
E|------3-----5---|   E|------3---------| (It depends on how you want to play it...)

Chorus:               Or:
e|----------------|   e|---0--3--0--0---|
B|----------------|   B|---3--0--3--2---|
G|----------------|   G|---2--0--2--2---|
D|---7-----7------|   D|---0--0--0--2---|
A|---5--5--5--7---|   A|----- 2-----0---|
E|------3-----5---|   E|------3---------| (It depends on...[the same as before])

Chorus outro:                         Or:
e|--------------------------------|   e|---0---3---|
B|--------------------------------|   B|---0---0---|
G|--------------------------------|   G|---0---0---|
D|--------------------------------|   D|---2---0---|
A|----------2-----------------5---|   A|---2---2---|
E|----------0-----------------3---|   E|---0---3---| (It...[you know])
...it's too bad.....it's just one...

Bridge ("Hey yeah" part after 2nd chorus):   Or:
e|-----------|                               e|---0---2---|
B|-----------|                               B|---3---2---|
G|-----------|                               G|---2---4---|
D|---7---4---|                               D|---0---4---|
A|---5---2---|                               A|-------2---|
E|-----------|                               E|-----------| (..[...]..)
            
Hard to play? Try these video lessons and learn fast. | Correct




comments powered by Disqus
↑ Back to top | Tablatures and chords are parodies/interpretations of the original songs. You may use it for private study, scholarship, research or language learning purposes only