» » »

Avril Lavigne, Get Over It Tabs (ver.1)

Artists:  A B C D E F G H I J K L M N O P Q R S T U V W X Y Z # 

Get Over It Tabs (ver.1)

Avril Lavigne Tabs
 Rating:
4/5 (4 votes)
Get Over It lessons Tabs too difficult? Try these video lessons and learn fast
1
                This song is on an import cd of Sk8er boi i believe. It's a b-side anywayz and 
why it's a b-side beats me. It's gr8!

Chords used:

Bm - x 2 4 4 3 2
G  - 3 2 0 0 3 3
D  - x x 0 2 3 2
A  - x 0 2 2 2 0
Em - 0 2 2 0 0 0

These chords can be strummed or finger picked, personally I like to finger pick them. The recording of get over it, Evan is playing some other kind of shapes. Just remember this isn't a note for note or chord for chord translation. This is just the way I like to play it and it sounds almost exact.

Intro (violins and cellos play this on the recording but this is the correct guitar     
       version)

E|:--------------:|---------------|
B|:--------------:|---------3--2--|
G|:--------------:|-----4-2-2--2--|
D|:--4--5--4--2--:|--0--2-2-2--2--|
A|:--2--2--2--2--:|--2------------|
E|:--------------:|---------------|(Guitar 1 or 2)

Fig.1 - |:Bm| G | D | A:|

Fig.2 - | Em | G |

Fig.3 (played by cello on recording)

E|--------------------------2------------|
B|--3-------------------3h5---5--3-------|
G|-------0-2--4-2-4-2--------------6-4~--|
D|----4----------------------------------|
A|---------------------------------------|
E|---------------------------------------|(Guitar 2)

E|:----5--5------5--5---:|
B|:--3--3--3---3--3--3--:|(Guitar 3)

Fig.4 (played by cello on recording)

E|-------------------|
B|--3-2-----3-2------|
G|------4-2-----4-2--|
D|-------------------|
A|-------------------|
E|-------------------|(Guitar 3)

Fig.5 |:G | Bm:|

Fig.6 (played by cello on recording)

E|--------------------------|
B|--------------------------|
G|--4--2--------------------|
D|--------4--2-----4-2------|
A|-------------5-4-----5-4--|
E|--------------------------|(Guitar 2)

Fig.7 - | Bm | G | A | Bm |

Fig.8 

E|---------------|
B|--3/5--3-5--7--|(Guitar 2)


Play intro

Verse 1 - Fig.1

Chorus - Fig.1 (x2) Fig.2

Fig.3 with guitar 1 strumming Fig.1

Verse 2 - Fig.1 (one guitar is fingerpicking the other is strumming)
          Fig.4

Chorus - Fig.1 (x2) Fig.2

Middle - Fig.5, Fig.2 

Guitar 1 single strums | Bm |

Fig.6

Chorus - Fig.1 (x4) Fig.2

Outro - Fig.7, Fig.8


Lyrics

Slippin' down a slide, I did enjoy the ride
Don't know what to decide, You lied to me
You looked me in the eye, It took me by surprise
Now are gratified you cried to me ?

La la la la la la_____

[Chorus]
Don't turn around I'm sick and I'm tired of your face
(La la la la la la)
Don't make this worse you've already gone and got me mad
It's too bad I'm not sad, it's casting over
Just one of those things you'll have to get over it

When I was feeling down you'd start to hang around
And then I found your hands all over me
Now that was out of bounds you filthy rotten hound
It's badder than it sounds believe me

La la la la la la_____

Chorus
      
Hey yeah_____ you gotta get over 
Hey yeah_____ you gotta get over it
Too bad I'm not sad it's casting over
Just one of those things you'll have to get over it
Oh

Don't turn around I'm sick and I'm tired of your face
(La la la la la la)
Don't make this worse you've already gone and got me mad
Don't turn around I'm sick and I'm tired of your face
(La la la la la la)
Don't make this worse you've already gone and got me mad
It's too bad I'm not sad, it's casting over
Just one of those things you'll have to get over it

You'll have to get over it

Well there ya go. I put in guitars 1,2 and 3 because if you're gonna play each wee bit of the song altogether like that, you'd definitely need 3 guitars. It is a rather simple song to play and I think it's one of Avril's best. Questions, comments, corrections 
            
Submit corrections

comments powered by Disqus
↑ Back to top | Avril Lavigne Tabs for Get Over It. Lyrics for acoustic guitar and electric guitar. 1 Tablatures and chords are parodies/interpretations of the original songs. You may use it for private study, scholarship, research or language learning purposes only