>
 >
Meine Stadt

Meine Stadt Chords

Auletta - Meine Stadt chords, tabs, tablatures, lyrics

Guitar lessons | Add/correct | Request | Top 50 tabs Artists:  A B C D E F G H I J K L M N O P Q R S T U V W X Y Z 0-9

Meine Stadt Chords – Auletta

CD, Sheet music, Poster

Do you like Meine Stadt? Share with your friends now
Bass TabsBass Tabs v2Bass Tabs v3ChordsTabsUkulele
Auletta - Meine Stadt


d: e|-5-|   B: e|-6-|   A: e|-5-|   F: e|-8-|   C: e|-8-|
   H|-6-|      H|-6-|      H|-5-|      H|-10|      H|-8-|
   G|-7-|      G|-7-|      G|-6-|      G|-10|      G|-9-|
   D|-7-|      D|-8-|      D|-7-|      D|-10|      D|-10|
   A|-5-|      A|-8-|      A|-7-|      A|-8-|      A|-10|
   E|-x-|      E|-6-|      E|-5-|      E|-x-|      E|-8-|


 Intro:
       Gitarre2:
     
       D  B  F  A     x2 (ohne Gitarre1)

 dann: D  D  B  A 


      Gitarre1:

      e|------------5-4-3-4-----------5-4-3-4-----------|
      H|--3-3-6-3-3---------3-3-6-3-3-------------------|
      G|------------------------------------------------|
      D|------------------------------------------------|
      A|------------------------------------------------|
      E|------------------------------------------------|


      e|---------------------------------5-3------------|
      H|-------3---3-6-3---3-------2---2-----6-5--------|
      G|---3-3---3-------3-----2-2---2------------------|
      D|------------------------------------------------|
      A|------------------------------------------------|
      E|------------------------------------------------|


Verse1:
       D
       Alarm, Alarm in meiner Stadt
       D
       Ein Feuer brennt in mir und hat
           B               A
       Die Nacht taghell gemacht

       D
       Ich taumel durch die Straßen
       D
       Durch die Häuser durch die Gassen
           B                     A
       Doch alles scheint wie im Traum zu sein

       D
       Denn ein paar junge Blicke fangen Feuer
       D
       Das Gerücht geht um
           B                    A
       Die Nacht steht heute in Brand
       A
       (Und dann fängt alles an...)


Chorus:
       D              B     F          A
       Und dann fängt alles an sich zu drehen
       D                  B            F         A    
       Die Nacht steht in Brand junges Herz wild entflammt
       B                     C
       Nachdurstig treib ich voran
       break
       Zünd' diese Stadt heute an


       Intro


Verse2:
       D
       Um Staub von meinen Schultern abzuschütteln 
       D
       Zieh ich durch die Nacht
           B                    A
       Und nach und nach sind's mehr und mehr

       D
       Ja junges Blut fließt durch die Stadt 
       D
       und jeder Winkel
                       B            A
       Jeder Platz ist voll Inspiration
       A
       (Und dann fängt alles an...)


Chorus:
       D              B     F          A
       Und dann fängt alles an sich zu drehen
       D                  B            F         A    
       Die Nacht steht in Brand junges Herz wild entflammt
       B                     C
       Nachdurstig treib ich voran
       D              B     F          A
       Und dann fängt alles an sich zu drehen
       D                  B            F         A
       Die Nacht steht in Brand junges Herz wild entflammt
       B                     C
       Nachdurstig treib ich voran


Bridge:
       D                       F
       Nachdurstig treiben wir voran
       B                       C
       Dann fängt es an
       D                       F
       Zünd' diese Stadt heute an
       B                       C
       Zünd' diese Stadt heute an
       D                          F
       Wir zünden die Stadt heute an
           B         A
       Und dann, und dann...


Chorus:
       D              B     F          A
       Und dann fängt alles an sich zu drehen
       D                  B            F         A    
       Die Nacht steht in Brand junges Herz wild entflammt
       B                     C
       Nachdurstig treib ich voran
       B                       C
       Zünd' diese Stadt heute an
       D                    F
       Und dann fängt alles an
       B                          C
       Wir zünden die Stadt heute an
                     D                F  
       Dann fängt es an dann fängt es an
       B                          C
       Wir zünden die Stadt heute an

       D    F


 Outro: 
       Gitarre2:

       D  B  F  A     x2


       Gitarre1:

       e|------------5-4-3-4-----------5-4-3-4-----------|
       H|--3-3-6-3-3---------3-3-6-3-3-------------------|
       G|------------------------------------------------|
       D|------------------------------------------------|
       A|------------------------------------------------|
       E|------------------------------------------------|


       e|------------5-4-3-4--5-4-3-4-5-|
       H|--3-3-6-3-3--------------------|
       G|-------------------------------|     
       D|-------------------------------|
       A|-------------------------------|
       E|-------------------------------|

      





Comments


Popular Auletta tabs & chords
Meine Stadt Bass Tabs
Alles Was Ich Bin Chords
Make Love Work 3 Chords
Ein Engel Kein Knig Intro Tabs
Heimatmelodie Tabs
Meine Stadt Tabs
Meine Stadt Intro Tabs
Meine Stadt Intro 1 Tabs
Alles Was Ich Bin Ukulele
Make Love Work Ukulele


Song lyrics



↑ Back to top | Tablatures and chords are parodies/interpretations of the original songs. You may use it for private study, scholarship, research or language learning purposes only
© 2014 AZChords.com Contact us | Privacy policy | DMCA | Add/correct tabs | Request tabs | Top 50 tabs