» » »

Auletta, Meine Stadt Bass tabs (ver.1)

Artists:  A B C D E F G H I J K L M N O P Q R S T U V W X Y Z # 

Meine Stadt Bass tabs (ver.1)

Auletta Tabs
 Rating:
4/5 (4 votes)
Meine Stadt lessons Tabs too difficult? Try these video lessons and learn fast
                Throughout the song there's a series of hammer-ons and pull-ofs and/or slides in between
listen to the song to identify them and try to follow their timing.

Intro

G|-------------------------------------|
D|-------7-5---------------------------|
A|-----0/----3-------------------------|
E|-------------------------------------|

(The first part is a slide that fades into the 7 on the D-string, you can avoid the
and play it on 5 on the E-string)

G|-----------------------------------------------------------------------|
D|-----------------------------------------------------------------------|
A|-----5-5-5--5p3-5-5-5--5/7------------------3--------------------------|
E|---------------------------6-6-6-6h8-5-5-5-5---------------------------|

(((This line will be played similarly through the entire song and alternatively can be
on the A and E string only and without hammers,pull-ofs and slides like the following:

G|-----------------------------------------------------------------------|
D|-----------------------------------------------------------------------|
A|-----5-5-5--5-5-5-5--5-7-----------------------------------------------|
E|-------------8----------6-6-6-6h8-5-5-5-5-8----------------------------| )))

Verse 1

G|-----------------------------------------------------------------------|
D|-----------------------------------------------------------------------| x2
A|-----5-5-5--5p3-5-5-5--5/7------------------3--------------------------|
E|---------------------------6-6-6-6h8-5-5-5-5---------------------------|

G|-----------------------------------------------------------------------|
D|-----------------------------------------------------------------------|
A|-----5-5-5--5p3-5-5-5--5/7---------------------------------------------|
E|---------------------------6-6-6-6h8-5---5---5---5--5--5-55------------|

Chorus 1

G|---------------------------------|
D|---------------------------------|
A|---5555----------8888------------|
E|----------6666----------5555-----|

G|---------------------------------|
D|----------------------/7-6-5-----|
A|---5555---------/88-8------------|
E|----------/6-66------------------|

G|-------------------------------|
D|-------------------------------|
A|-------------------------------|
E|--------6-6-6-6-6-6-6-6-8------|

Verse 2

G|-----------------------------------------------------------------------|
D|-----------------------------------------------------------------------|
A|-----5-5-5--5p3-5-5-5--5/7------------------3--------------------------|
E|---------------------------6-6-6-6h8-5-5-5-5---------------------------|

G|-----------------------------------------------------------------------|
D|-----------------------------------------------------------------------|
A|-----5-5-5--5p3-5-5-5--5/7---------------------------------------------|
E|---------------------------6-6-6-6h8-5-5-5-----------------------------|

G|-----------------------------------------------------------------------|
D|-----------------------------------------------------------------------|
A|-----5-5-5--5p3-5-5-5--5/7---------------------------------------------|
E|---------------------------6-6-6-6h8-5---5---5--5--5-555---------------|

Chorus 2

G|----------------------------------------------| 
D|----------------------------------------------|    
A|---5555----------8888-------------------------|      
E|----------6666----------5555------------------|      

                               \
G|----------------------------------------------|        
D|----------------------/7-6-5------------------|     x2
A|---5555---------/88-8-------------------------|       
E|----------/6-66-------------------------------|      

                              /
G|------------------------------------------------------| 
D|------------------------------------------------------|
A|------------------------------------------------------|
E|--------6-6-6-6-6-6-6-6-8-8-8-8-8-8-8-8---------------|

 Bridge

G|-------------------------------------------|
D|-------------------------------------------|
A|-------------------------------------------|
E|--------6-6-6-6-6-6-6-6-8-8-8-8-8-8-8------|

G|--------------------------------------------------------------------|
D|--------------------------------------------------------------------|   x2
A|---5-5-5-5-5-5-5-5-----------------8-8-8-8-8-8-8-8------------------|
E|-------------------6-6-6-6-6-6-6-6-----------------5-5-5-5-5-5-5-5--|

Chorus 3

G|----------------------------------------------|
D|----------------------------------------------|
A|---5555----------8888-------------------------|
E|----------6666----------5555------------------|

G|----------------------------------------------|
D|----------------------/7-6-5------------------|
A|---5555---------/88-8-------------------------|
E|----------/6-66-------------------------------|

G|---------------------------------------------|
D|---------------------------------------------|
A|---------------------------------------------|
E|--------6-6-6-6-6-6-6-6-8-8-8-8-8-8-8-8------|

G|--------------------------------------------------------------------|
D|--------------------------------------------------------------------|   x2
A|---5-5-5-5-5-5-5-5-----------------8-8-8-8-8-8-8-8------------------|
E|-------------------6-6-6-6-6-6-6-6-----------------5-5-5-5-5-5-5-5--|

G|--------------------------------------------------------------------|
D|--------------------------------------------------------------------|
A|---5-5-5-5-5-5-5-5-----------------8-8-8-8-8-8-8-8------------------|
E|-------------------6-6-6-6-6-6-6-6-----------------5/---------------|


This is they way that sound better to me, I only have doubts during the chorus, any
and corrections are more than welcome...
            
Submit corrections

comments powered by Disqus
↑ Back to top | Auletta Bass for Meine Stadt. Lyrics for acoustic guitar and electric guitar. Tablatures and chords are parodies/interpretations of the original songs. You may use it for private study, scholarship, research or language learning purposes only