» » »

Meine Stadt Tabs (ver.3)

Artists:  A B C D E F G H I J K L M N O P Q R S T U V W X Y Z # 

Meine Stadt Tabs (ver.3)

Auletta
Rating:
0/5 (0 votes)

Hard to play? Try these video lessons and learn fast.
                (Intro)
        //Auletta - Meine Stadt(Intro)//


      e|-------4-----5-4-3-4-----4-----5-4-3-4----------|
      H|---3-3---3-3---------3-3---3-3------------------|
      G|------------------------------------------------|
      D|------------------------------------------------|
      A|------------------------------------------------|
      E|------------------------------------------------|


      e|----------------------------------5-3-----------|
      H|-------3------6-3---3-------2----------6-5------|
      G|---3-3---3-3------3-----2-2---2-2---------------|
      D|------------------------------------------------|
      A|------------------------------------------------|
      E|------------------------------------------------|
            
Hard to play? Try these video lessons and learn fast. | Correct




comments powered by Disqus
↑ Back to top | Tablatures and chords are parodies/interpretations of the original songs. You may use it for private study, scholarship, research or language learning purposes only