» » »

Meine Stadt Tabs (ver.1)

Artists:  A B C D E F G H I J K L M N O P Q R S T U V W X Y Z # 

Meine Stadt Tabs (ver.1)

Auletta
Rating:
3/5 (1 vote)

Hard to play? Try these video lessons and learn fast.
                Riff: e|------------5-4-3-4-----------5-4-3-4-----------|
      H|--3-3-6-3-3---------3-3-6-3-3-------------------|
      G|------------------------------------------------|
      D|------------------------------------------------|
      A|------------------------------------------------|
      E|------------------------------------------------|


      e|---------------------------------5-3------------|
      H|-------3---3-6-3---3-------2---2-----6-5--------|
      G|---3-3---3-------3-----2-2---2------------------|
      D|------------------------------------------------|
      A|------------------------------------------------|
      E|------------------------------------------------|

Riff pt. 1: e|------------5-4-3-4-----------5-4-3-4-----------|
            H|--3-3-6-3-3---------3-3-6-3-3-------------------|
            G|------------------------------------------------|
            D|------------------------------------------------|
            A|------------------------------------------------|
            E|------------------------------------------------|

3 highest strings of each chord means you do the normal chords, but just play string e, H & G.
The Chords are almost all played as Barés, just Dm is played differently:

e|---5---|
H|---6---|
G|---7---|
D|---7---|
A|---x---|
E|---x---|


Intro:  (Riff)	 	Dm – Dm – A# - A
	(Riff)		Dm – Dm – A# - A

Strophe:		Dm – Dm – A# - A
(3 highest strings)	Dm – Dm – A# - A  
(3 highest strings)	Dm – Dm – A# - A – A 

Chorus:		        Dm – A# - F - A
			Dm – A# - C – A – A# - C

Riff:			Dm – Dm – A# - A
			Dm – Dm – A# - A

Strophe:		Dm – Dm – A# - A
(3 highest strings)	Dm – Dm – A# - A  
(3 highest strings)	Dm – Dm – A# - A – A

Chorus:		        Dm – A# - F - A
			Dm – A# - C – A – A# - C

Chorus:		        Dm – A# - F - A
			Dm – A# - C – A – A# - C

Bridge:		        Dm – F – A# - C
			Dm – F – A# - C 
(riff pt. 1)		Dm – F – A# - A – A

Chorus:		        Dm – A# - F - A
			Dm – A# - C – A – A# - C

Bridge2: (riff pt. 1)	Dm – F – A# - C
(riff pt. 1)		Dm – F – A# - C
(riff pt. 1)		Dm – F – A# - C
(riff pt. 1)		Dm – F – A# - C

Outro:	(riff pt. 1)	Dm – Dm – A# - A
	(riff pt. 1)	Dm – Dm – A# - A
	(riff pt. 1)	Dm – Dm – A# - A
            
Hard to play? Try these video lessons and learn fast. | Correct




comments powered by Disqus
↑ Back to top | Tablatures and chords are parodies/interpretations of the original songs. You may use it for private study, scholarship, research or language learning purposes only