>
 >
Say It To Me

Say It To Me Guitar Tabs

Attack Attack - Say It To Me chords, tabs, tablatures, lyrics

Guitar lessons | Add/correct | Request | Top 50 tabs Artists:  A B C D E F G H I J K L M N O P Q R S T U V W X Y Z 0-9

Say It To Me Guitar Tabs – Attack Attack

CD, Sheet music, Poster

Do you like Say It To Me? Share with your friends now
TabsTabs v2
----------------------------------------------|
--8-------7------8-----7------8------7--------|
--9x16----9x16---9x16--9x16---9x16---9x16-----|
----------------------------------------------|
----------------------------------------------|
----------------------------------------------|

------------------7-5-7-5---------------------|
8 8 8 7 7 7------5---5---5--x2----------------|
-----------7----------------------------------|
----------------------------------------------|
----------------------------------------------|
----------------------------------------------|

----------------------------------------------|
--8-----10-----12----7----10---7--------------|
--9x8---9-x4---9-x4--7x8--9-x4-7x4------------|
----------------------------------------------|
----------------------------------------------|
----------------------------------------------|

-------------------7-5-7-5----------3-5---3-5-5---|
8 8 8 7 7 7-------5---5---5--x2----4-4---4-4------|
-----------7--------------------------------------|
--------------------------------------------------|
--------------------------------------------------|
--------------------------------------------------|

--------------------------------------------------|
-------------------------12-10--------------------|
-9-9-9-9---12-12--14-12--x--x---------------------|
-x-x-x-x---x--x---x--x---x--x---------------------|
-7-7-7-7---10-10--12-10--10-10--------------------|
--------------------------------------------------|

--------------------------------------------------|
-----------------------------13--12---------------|
-12-12-12-12---14-14--16-14--x---x----------------|
-x--x--x--x----x--x---x--x---x---x----------------|
-10-10-10-10---12-12--14-12--10--10---------------|
--------------------------------------------------|

--------------------------------------------------|
-------------------------12-10--------------------|
-9-9-9-9---12-12--14-12--x--x---------------------|
-x-x-x-x---x--x---x--x---x--x---------------------|
-7-7-7-7---10-10--12-10--10-10--------------------|
--------------------------------------------------|

--------------------------------------------------|
-----------------------------13--12---------------|
-12-12-12-12---14-14--16-14--x---x----------------|
-x--x--x--x----x--x---x--x---x---x----------------|
-10-10-10-10---12-12--14-12--10--10---------------|
--------------------------------------------------|

--------------------------------------------------|
-------------------------12-10--------------------|
-9-9-9-9---12-12--14-12--x--x---------------------|
-x-x-x-x---x--x---x--x---x--x---------------------|
-7-7-7-7---10-10--12-10--10-10--------------------|
--------------------------------------------------|

--------------------------------------------------|
-----------------------------13--12---------------|
-12-12-12-12---14-14--16-14--x---x----------------|
-x--x--x--x----x--x---x--x---x---x----------------|
-10-10-10-10---12-12--14-12--10--10---------------|
--------------------------------------------------|

--------------------------------------------------|
-------------------------12-10--------------------|
-9-9-9-9---12-12--14-12--x--x---------------------|
-x-x-x-x---x--x---x--x---x--x---------------------|
-7-7-7-7---10-10--12-10--10-10--------------------|
--------------------------------------------------|

--------------------------------------------------|
-----------------------------13--12---------------|
-12-12-12-12---14-14--16-14--x---x----------------|
-x--x--x--x----x--x---x--x---x---x----------------|
-10-10-10-10---12-12--14-12--10--10---------------|
--------------------------------------------------|

----------------|
--8-------7-----|
--9x16----9x16--|
----------------|
----------------|
----------------|

------------------7-5-7-5---------------------|
8 8 8 7 7 7------5---5---5--x2----------------|
-----------7----------------------------------|
----------------------------------------------|
----------------------------------------------|
----------------------------------------------|

----------------------------------------------|
--8-----10-----12----7----10---7--------------|
--9x8---9-x4---9-x4--7x8--9-x4-7x4------------|
----------------------------------------------|
----------------------------------------------|
----------------------------------------------|

-------------------7-5-7-5------|
8 8 8 7 7 7-------5---5---5--x2-|
-----------7--------------------|
--------------------------------|
--------------------------------|
--------------------------------|

havent worked out the solo bit yet but carrying on...

--------------------------------------------------|
-------------------------12-10--------------------|
-9-9-9-9---12-12--14-12--x--x---------------------|
-x-x-x-x---x--x---x--x---x--x---------------------|
-7-7-7-7---10-10--12-10--10-10--------------------|
--------------------------------------------------|

--------------------------------------------------|
-----------------------------13--12---------------|
-12-12-12-12---14-14--16-14--x---x----------------|
-x--x--x--x----x--x---x--x---x---x----------------|
-10-10-10-10---12-12--14-12--10--10---------------|
--------------------------------------------------|

--------------------------------------------------|
-------------------------12-10--------------------|
-9-9-9-9---12-12--14-12--x--x---------------------|
-x-x-x-x---x--x---x--x---x--x---------------------|
-7-7-7-7---10-10--12-10--10-10--------------------|
--------------------------------------------------|

--------------------------------------------------|
-----------------------------13--12---------------|
-12-12-12-12---14-14--16-14--x---x----------------|
-x--x--x--x----x--x---x--x---x---x----------------|
-10-10-10-10---12-12--14-12--10--10---------------|
--------------------------------------------------|

--------------------------------------------------|
-------------------------12-10--------------------|
-9-9-9-9---12-12--14-12--x--x---------------------|
-x-x-x-x---x--x---x--x---x--x---------------------|
-7-7-7-7---10-10--12-10--10-10--------------------|
--------------------------------------------------|

--------------------------------------------------|
-----------------------------13--12---------------|
-12-12-12-12---14-14--16-14--x---x----------------|
-x--x--x--x----x--x---x--x---x---x----------------|
-10-10-10-10---12-12--14-12--10--10---------------|
--------------------------------------------------|

--------------------------------------------------|
-------------------------12-10--------------------|
-9-9-9-9---12-12--14-12--x--x---------------------|
-x-x-x-x---x--x---x--x---x--x---------------------|
-7-7-7-7---10-10--12-10--10-10--------------------|
--------------------------------------------------|

--------------------------------------------------|
-----------------------------13--12---------------|
-12-12-12-12---14-14--16-14--x---x----------------|
-x--x--x--x----x--x---x--x---x---x----------------|
-10-10-10-10---12-12--14-12--10--10---------------|
--------------------------------------------------|

----------------|
--8-------7-----|
--9x16----9x16--|
----------------|
----------------|
----------------|

------------------7-5-7-5---------------------|
8 8 8 7 7 7------5---5---5--x2----------------|
-----------7----------------------------------|
----------------------------------------------|
----------------------------------------------|
----------------------------------------------|

----------------------------------------------|
--8-----10-----12----7----10---7--------------|
--9x8---9-x4---9-x4--7x8--9-x4-7x4------------|
----------------------------------------------|
----------------------------------------------|
----------------------------------------------|

-------------------7-5-7-5------|
8 8 8 7 7 7-------5---5---5--x2-|
-----------7--------------------|
--------------------------------|
--------------------------------|
--------------------------------|

--------------------------------|
-8-8-8-8-7-7-8-7----------------| Repeat this for as long as needed then as
--9-9-9-9-9-9-9-9---------------| as thats playing this is also playing
--------------------------------| at the same time.
--------------------------------|
--------------------------------|

Repeat this for as long as needed then as
thats playing this is also playing at the same

--------------------------------                         -----------------|
--------------------------------                         -----------------|
--------------------------------                         -----------------|
-------------5---5---7----------                         -----------------|
-2---5---5---3x8-2x4-5x4--------play as much needed then:-2-2-2--2222-----|
-0x8-2x4-3x4--------------------                         -x-x-x--xxxx-----|

----------------|
--8-------7-----|
--9x16----9x16--|
----------------|
----------------|
----------------|

------------------7-5-7-5---------------------|
8 8 8 7 7 7------5---5---5--x2----------------|
-----------7----------------------------------|
----------------------------------------------|
----------------------------------------------|
----------------------------------------------|

----------------------------------------------|
--8-----10-----12----7----10---7--------------|
--9x8---9-x4---9-x4--7x8--9-x4-7x4------------|
----------------------------------------------|
----------------------------------------------|
----------------------------------------------|

-------------------7-5-7-5------|
8 8 8 7 7 7-------5---5---5--x2-|
-----------7--------------------|
--------------------------------|
--------------------------------|
--------------------------------|

---------------------------------------------|
---------------------------------------------|
---------------------------------------------|
---------------------------------------------|
-2-2-2--2-2-2--2-2-2----2-2-2--2222----------|
-x-x-x--x-x-x--x-x-x-x3-x-x-x--xxxx----------|

whilst thats playing at the end this is also playing:

-151515151515151515---------| play until end.
-151515151515151515---------|
----------------------------|
----------------------------|
----------------------------|
----------------------------|





Comments


Popular Attack Attack tabs & chords
Shred White And Blue Bass Tabs
Were Not The Enemy Bass Tabs
All Alone Chords
Bro, Ashley's Here Tabs
Interlude Tabs
Sexual Man Chocolate 2 Tabs
The Betrayal Tabs
Too Bad Son Tabs
Were Not The Enemy Intro Tabs
You And Me Tabs


Song lyrics



↑ Back to top | Tablatures and chords are parodies/interpretations of the original songs. You may use it for private study, scholarship, research or language learning purposes only
© 2014 AZChords.com Contact us | Privacy policy | DMCA | Add/correct tabs | Request tabs | Top 50 tabs