» » »

Attack Attack, A For Andrew Tabs (ver.1)

Artists:  A B C D E F G H I J K L M N O P Q R S T U V W X Y Z # 

A For Andrew Tabs (ver.1)

Attack Attack Tabs
 Rating:
4/5 (4 votes)
A For Andrew lessons Tabs too difficult? Try these video lessons and learn fast
1
                (Intro)
-------------------------------------------------------------------------------
                             A FOR ANDREW - Attack Attack
-------------------------------------------------------------------------------

Tuning: Bf#BEG#C#


C#|--------------------------------------|
G#|--------------------------------------|
E |--------------------------------------|
B |--------------------------------------|
F#|----------------------------0--0-0-0--|
B |-0~-----/12-12-12-12-12-0-0-1--1-1-1--|


C#|---------------------------------------|
G#|---------------------------------------|
E |---------------------------------------|
B |---------------------------------------|
F#|----------------------------1-----1-/4-|
B |-0~-----/12-12-12-12-12-0-0-1-0-0-1-/4-|

then im not sure what goes on here exactly?

something like this maybe but probs not right, sorry

C#|-----------------------------------------------------|
G#|-----------------------------------------------------|
E |-----------------------------------------------------|
B |-----------------------------------------------------|
F#|-----------------------------------------------1-4-3-|
B |-0-0-0-0-12----0-0--0-0-12-0-0-0-0-0-0-12--0-0-1-4-3-|


and then at 0:50ish


C#|--------------------------------------|
G#|--------------------------------------|
E |--------------------------------------|
B |--------------------------------------|
F#|----------------0-----------0---------|
B |-0-0-0-0-0--0-0-1-0-0-0-----1-0-0-0---|


C#|------------------------------------|
G#|------------------------------------|
E |------------------------------------|
B |------------------------------------|
F#|-------------0------------0---------|
B |-0-0-0---0-0---1-0-1~-----1-0-0-0---|

after piano part

C#|-----------------------------|
G#|-----------------------------|
E |-----------------------------|
B |-----------------------------|
F#|-1-4-0--0--0--0--------------|
B |-1-4-0--0--0--0--0--0-0------|

the chorus is just these three chords, not going to write out strumming pattern:

C#|--------------|
G#|--------------|
E |--------------|
B |-5~---0~---3~-|
F#|-5~---0~---3~-|
B |-5~---0~---3~-|

the breakdown:

C#|--------------------------------------|
G#|--------------------------------------|
E |--------------------------------------|
B |--------------------------------------|
F#|-0-0-0-0-0--0-0--0-0--0--0-0----------|
B |-1-1-1-1-1--1-1--1-1--1--1-1----------|


C#|--------------------------------|
G#|--------------------------------|
E |--------------------------------|
B |--------------------------------|
F#|-0-0-0-0-0--0-0-----------------|
B |-1-1-1-1-1--1-1--1~--1~--1~-----|
            
Submit corrections

comments powered by Disqus
↑ Back to top | Attack Attack Tabs for A For Andrew. Lyrics for acoustic guitar and electric guitar. 1 Tablatures and chords are parodies/interpretations of the original songs. You may use it for private study, scholarship, research or language learning purposes only