» » »

Ac 10 Bass tabs (ver.1)

Artists:  A B C D E F G H I J K L M N O P Q R S T U V W X Y Z # 

Ac 10 Bass tabs (ver.1)

Attack Attack
Rating:
3/5 (1 vote)

Hard to play? Try these video lessons and learn fast.
                Attack Attack!
"AC-130"
Attack Attack! (2010)


Tuning: Drop Ab (Ab, Eb, Ab, Db)

spaced the one's out so they aren't confused for 11


|---------|-----------------------------------|
|---------|-----------------------------------|
|---------|-----------------------------------|
|---------|-0-0000-00000000--0-0000-1-1b-1-1b-|

                                   
|---------------------------------------|
|---------------------------------------|
|---------------------------------------|
|-0-0000-00000000--0-0000-0-12\\\-0-1-1-|


|------------------------------------|
|------------------------------------|
|------------------------------------|
|-0-00120-00000000--0-0000-0-1b-0-1b-|
          

|---------------------------------------|
|---------------------------------------|
|---------------------------------------|
|-0-0000-00000000--0-0000-0-12\\\-0-1-1-|

(x2)                      (one's)

|---------------------------------------|
|---------------------------------------|
|---------------------------------------|
|-0-0000-12b-0-0-0-012\\\-1-1-1-1--8888-|

|--------------------------------|
|--------------------------------|
|--------------------------------|
|-0-0000-12b-0-12b--000--001-001-|

x8

|-----------------------------------------|---|
|-----------------------------------------|---|
|-----------------------------------------|---|
|-000-12b-000-12b-0000-000-1b-000-1b-0000-|-0-|
                                            


|---------------------|----|----------------------|
|---------------------|----|----------------------|
|---------------------|----|----------------------|
|-0-0-0--0-0--0-0-0-0-|-00-|-0--0-0--0-0--0-0-0-0-|



|------------------------------------------------------|
|------------------------------------------------------|
|------------------------------------------------------|
|-0-0-0--0-0--0-0-0-00000000-3333-2222-0--0-0--0-0-0-0-|

|------------------------------------------------------|
|------------------------------------------------------|
|------------------------------------------------------|
|-0-0-0--0-0--0-0-0-0--0-0--0-0-0-0--0-0-0--0-0--0-0-0-| 
            
Hard to play? Try these video lessons and learn fast. | Correct




comments powered by Disqus
↑ Back to top | Tablatures and chords are parodies/interpretations of the original songs. You may use it for private study, scholarship, research or language learning purposes only