» » »

Attack Attack, Ac 10 Tabs (ver.3)

Artists:  A B C D E F G H I J K L M N O P Q R S T U V W X Y Z # 

Ac 10 Tabs (ver.3)

Attack Attack Tabs
Rating:
0/5 (0 votes)
Ac 10 lessons Tabs too difficult? Try these video lessons and learn fast
                Attack Attack!
"AC-130"
DROP G

D-----------------------------------------|
A-----------------------------------------|
F-----------------------------------------|
C-----------------------------------------|
G-----------------------------------------|
D-----------------------------------------|
G-0-1b--0-0000--00000000-0-0000-0-1b-0-1--|b

D-------------------------------|
A-------------------------------|
F-------------------------------|
C-------------------------------|
G-------------------------------|
D-------------------------------|
G-0-0000--00000000-0-0000-12----|1b

D-----------------------------------|
A-----------------------------------|
F-----------------------------------|
C-----------------------------------|
G-----------------------------------|
D-----------------------------------|
G-0-0000~~00000000-0-0000-0-1b-0-1--|b
          ******** * ****
D--------------------------------|
A--------------------------------|
F--------------------------------|
C--------------------------------|
G--------------------------------|
D--------------------------------|
G-0-0000--00000000-0-0000-12-----|1b/

D---------------------------------|
A---------------------------------|
F---------------------------------|
C---------------------------------|
G---------------------------------|
D----------------------------1111-|
G-0-0000-13b-0-0-0-012h/-1111-----|

D----------------------------------|
A----------------------------------|
F----------------------------------|
C----------------------------------|
G----------------------------------|
D----------------------------------|
G-0-0000-13b-0-13b-0-0-00-1b-00-1--|b

D-----------------------------------|
A-----------------------------------|
F-----------------------------------|
C-----------------------------------|
G-----------------------------------|
D----------------------------1111---|
G-0-0000-13b-0-0-0-012h/-1111-------|

D----------------------------------|
A----------------------------------|
F----------------------------------|
C----------------------------------|
G----------------------------------|
D----------------------------------|
G-0-0000-13b-0-13b-0-0-00-1b-00-1--|b

D-------------------------------------|
A-------------------------------------|
F-------------------------------------|
C-------------------------------------|
G-------------------------------------|
D-------------------------------------|
G-00-13b-00-13b-00000-0-1b-0-1b-00000-|

D-----------------------|
A-----------------------|
F-----------------------|
C-----------------------|
G-----------------------|
D-----------------------|
G-00-1b0p--00-1b0p-0000-|

D-------------------------------------|
A-------------------------------------|
F-------------------------------------|
C-------------------------------------|
G-------------------------------------|
D-------------------------------------|
G-00-13b-00-13b-00000-0-1b-0-1b-00000-|
                                     repeat

at 1:05...

D----------------------------------------|
A----------------------------------------|
F----------------------------------------|
C----------------------------------------|
G----------------------------------------|
D--0---00-0-00--00-00--00-0-00--00-00----|
G--1---11-1-11--11-11--11-1-11--11-11--0-|

D----------------------------------------------------|
A----------------------------------------------------|
F----------------------------------------------------|
C----------------------------------------------------|
G---------------------------------11111111-4444-3333-|
D-00-0-00--00-00--00-0-00--00-00--11111111-4444-3333-|
G-11-1-11--11-11--11-1-11--11-11---------------------|

D--------------------------------------------------|
A--------------------------------------------------|
F--------------------------------------------------|
C--------------------------------------------------|
G--------------------------------------------------|
D-0---00-0000---000-00-0000---00-0000---000-00-000-|
G-1---11-1111---111-11-1111---11-1111---111-11-111-|
            
Submit corrections

comments powered by Disqus
↑ Back to top | Attack Attack Tabs for Ac 10. Lyrics for acoustic guitar and electric guitar. Tablatures and chords are parodies/interpretations of the original songs. You may use it for private study, scholarship, research or language learning purposes only