>
 >
Ex Machina

Ex Machina Guitar Tabs

A Skylit Drive - Ex Machina chords, tabs, tablatures, lyrics

Guitar lessons | Add/correct | Request | Top 50 tabs Artists:  A B C D E F G H I J K L M N O P Q R S T U V W X Y Z 0-9

Ex Machina Guitar Tabs – A Skylit Drive

CD, Sheet music, Poster

Do you like Ex Machina? Share with your friends now
Bass TabsTabs
+ = natural harmonics(left finger)
t-tap
p-pull
h-hammer

Tuning:
GtrI
|---------------------------------------------------------|  -7+-------|
|-t12-p3-p0-h3-t10-p3-p0-h3-t12-p3-p0-h3-h5-p3-p0-h3------|  ----7+----|
|---------------------------------------------------------|  -------7+-|
|---------------------------------------------------------|8x----------|
|---------------------------------------------------------|  ----------|
|---------------------------------------------------------|  ----------|
GtrII
|--------------------------------------------------------------------|
|--------------------------------------------------------------------|
|-1111111111111111-6-6-6-6-6-6-6-6-7-7-7-7-7-7-7-7--7-7-7-7-7-7-7-7--|
|-9-9-9-9-9-9-9-9--4-4-4-4-4-4-4-4-5-5-5-5-5-5-5-5--5-5-5-5-5-5-5-5--|2x
|-9-9-9-9-9-9-9-9--4-4-4-4-4-4-4-4-5-5-5-5-5-5-5-5--5-5-5-5-5-5-5-5--|
|-9-9-9-9-9-9-9-9--4-4-4-4-4-4-4-4-5-5-5-5-5-5-5-5--5-5-5-5-5-5-5-5--|

Verse- (bass)Bm G Bm G F#
Gtrs
|---------------------------------------------------------|
|---------------------------------------------------------|
|---------------------------------------------------------|
|-9-------------------9-----------------------------------|
|-9-------------------9------------------4-4-4-4-4-4------|
|-9-------------------9------------------4-4-4-4-4-4------|
                                         * * * * * *
Refrain-
GtrI
|-------------------------------------------------------|
|-------------------------------------------------------|
|-t7-p2-p0-h2-t9-p2-p0-h2----t7-p2-p0-h2-t9-p2-p0-h2----|
|-------------------------------------------------------|4x
|-------------------------------------------------------|
|-------------------------------------------------------|
GtrII
|-------------------------------------------------------|
|-------------------------------------------------------|
|-------------------------------------------------------|4x
|-t9-p7-p4-h7-t12-p7-p4-h7----t9-p7-p4-h7-t12-p7-p4-h7--|
|-------------------------------------------------------|
|-------------------------------------------------------|

Chorus-
GtrI
|-----------------------------------------------------|
|-----------------------------------------------------|
|-4~----6-7~----------------4~----6-7~----------------|
|-4~----------5~----4~------4~------------5~----4~----|
|-2~----------5~----4~------2~------------5~----4~----|
|-------------5~----4~--------------------5~----4~----|
GtrII
|---------------------------------------------------------|
|---------------------------------------------------------|
|---------------------------------------------------------|
|--9~----------5~----4~---------9~------------5~----4~----|
|--9~----------5~----4~---------9~------------5~----4~----|
|--9~----------5~----4~---------9~------------5~----4~----|

Interlude-
GtrI
|----------------------------|
|----------------------------|
|----------------------------|
|-9----------9-9-------------|
|-9----------9-9-------------|
|-9----------9-9-------------|
GtrII
|----------------------------|
|----------------------------|
|-11-11-11---------11-11-9---|
|-9--9--9--12-9-9--9--9--7---|
|-9--9--9--12-9-9--9--9--7---|
|-9--9--9--12-9-9--9--9--7---|

 Chorus 2-Do intro

Then

|---------------------------------------------------|
|---------------------------------------------------|
|--111111111111111111-7-7-7-7-7-7-7-7-7-------------|2x
|---------------------------------------------------|
|--9-9-9-9-9-9-9-9-9--5-5-5-5-5-5-5-5-5-------------|
|---------------------------------------------------|

|---------------------------------------------------|
|---------------------------------------------------|
|--111111111111111111-7-7-7-7-7-7-7-7-7-------------|2x
|--9-9-9-9-9-9-9-9-9--5-5-5-5-5-5-5-5-5-------------|
|--9-9-9-9-9-9-9-9-9--5-5-5-5-5-5-5-5-5-------------|
|--9-9-9-9-9-9-9-9-9--5-5-5-5-5-5-5-5-5-------------|


then..
|---------------------------------------------------------|
|---------------------------------------------------------|
|---------------------------------------------------------|
|---------------------------------------------------------|
|-4-4-4-4-4-4-4-------------------------------------------|
|-4-4-4-4-4-4-4-------------------------------------------|
  * * * * * * *
Do refrain-
DO Chorus1

Then Do Interlude
Do Chorus 2
outro-
Over ride command confirmed,.manual control returned.
GtrI
|----------------------------------------------|
|-111111-------------------------9--9--7-9-9-7-|
|-9-9-9----------------------------------------|4x
|-9-9-9-xxx--9-9---5-5-5-5-5-----7--7--5-7-7-5-|
|-9-9-9-xxx--9-9---5-5-5-5-5-------------------|
             * *   * * * * *
|------------------------------------------------|
|------------------------------------------------|
|-9-9-7-9-9-7-9-9-7-9-9-7-11~--------------------|
|--------------------------9~--------------------|end
|-7-7-5-7-7-5-7-7-5-7-7-5--9~--------------------|
|--------------------------9~--------------------|

GtrII
|------------------------------------------------|
|------------------------------------------------|
|-9-9-9---------------------------2-2-0-2-2-0----|4x
|-9-9-9-xxx--9-9---5-5-5-5-5------2-2-0-2-2-0----|
|-9-9-9-xxx--9-9---5-5-5-5-5------2-2-0-2-2-0----|
        ***  * *   * * * * *

|------------------------------------------------|
|------------------------------------------------|
|------------------------------------------------|
|-2-2-0-2-2-0-2-2-0-2-2-0--9~--------------------|
|-2-2-0-2-2-0-2-2-0-2-2-0--9~--------------------|end
|-2-2-0-2-2-0-2-2-0-2-2-0--9~--------------------|


===============================================================================





Comments


Popular A Skylit Drive tabs & chords
Ex Machina Bass Tabs
Wires And The Concept Of Breathing 2 Bass Tabs
According To Columbus Chords
According To Columbus 2 Tabs
All It Takes For Your Dreams To Come True Tabs
Balance Tabs
Drown The City Tabs
Eva The Carrier Tabs
Hey Nightmare, Where Did You Get Them Teeth? 2 Tabs
Knights Of The Round 2 Tabs


Song lyrics



↑ Back to top | Tablatures and chords are parodies/interpretations of the original songs. You may use it for private study, scholarship, research or language learning purposes only
© 2014 AZChords.com Contact us | Privacy policy | DMCA | Add/correct tabs | Request tabs | Top 50 tabs