» » »

A Skylit Drive, Ex Machina Bass tabs (ver.1)

Artists:  A B C D E F G H I J K L M N O P Q R S T U V W X Y Z # 

Ex Machina Bass tabs (ver.1)

A Skylit Drive Tabs
Rating:
0/5 (0 votes)
Hard to play? Try these video lessons and learn fast.
                ++++++++++++++++++++++++++++++
| A Skylit Drive- Ex Machina |
++++++++++++++++++++++++++++++


"Overproduce me..."

Tuning: EADG



Intro
1.
G|-----------------------------------------------------------------|
D|-----------------------------------------------------------------|
A|-2-2222222222222-------------------------------------------00000-|
E|-----------------2-2222222222222-3-3333333333333-3-33333333------|

2.
G|-----------------------------------------------------------------|
D|-----------------------------------------------------------------|
A|-2-2222222222222-------------------------------------------------|
E|-----------------2-2222222222222-3-3333333333333-3-3333333333333-|

Verse
"Final forewarning has gone..."
3.
G|----------------------------------------------------2h4-----2------------------|
D|------------------------------------------------2h4-----2h4--------------------|
A|-2~-2-2-2-2-2-0h2h5-------------------2~-2-2-2---------------------------------|
E|--------------------3~-3-3-3-33--22-2------------------------3~-3-3-3--333-222-|

"You think he's mine..."
4.
G|-----------------------------------------|
D|-----------------------------------------|
A|-2222-4455------4455-2222-4455------4455-|
E|-----------3333----------------3333------|

Pre-Chorus
"Overproduce me..."
5.
G|---------------------------------------------------------|
D|---------------------------------------------------------|
A|-2~----4~--5~----------------2~----4~--5~----------------|
E|---------------3~------2-2-2---------------3~------2-2-2-|

6.
G|----------------------|
D|----------------------|
A|-2x--------22x--------|
E|----------------------|

Chorus
"Whats the connection?"
7.
G|-----------------------------------------------------------------|
D|-----------------------------------------------------------------|
A|-2-2222222222222-------------------------------------------00000-|
E|-----------------2-2222222222222-3-3333333333333-3-33333333------|

"Disassemble me..."
8.
G|-----------------------------------------------------------------|
D|-----------------------------------------------------------------|
A|-2-2222222222222-------------------------------------------------|
E|-----------------2-2222222222222-3-3333333333333-3-3333333333333-|

Verse
"Cut me open..."
9.
G|---------------------------------------------------------------------------|
D|---------------------------------------------------------------------------|
A|-2~-2-2-2-2-2-0h2h5-------------------2~-2-2-2-2-2-0h2h5-------------------|
E|--------------------3~-3-3-3-33--22-2--------------------3~-3-3-3--333-222-|

"Relaxed movements..."
10.
G|-----------------------------------------|
D|-----------------------------------------|
A|-2222-4455------4455-2222-4455------4455-|
E|-----------3333----------------3333------|

Pre-Chorus
"Overproduce me..."
11.
G|---------------------------------------------------------|
D|---------------------------------------------------------|
A|-2~----4~--5~----------------2~----4~--5~----------------|
E|---------------3~------2-2-2---------------3~------2-2-2-|

12.
G|----------------------|
D|----------------------|
A|-2x--------22x--------|
E|----------------------|

Chorus
"Whats the connection?"
13.
G|-----------------------------------------------------------------|
D|-----------------------------------------------------------------|
A|-2-2222222222222-------------------------------------------00000-|
E|-----------------2-2222222222222-3-3333333333333-3-33333333------|

"Disassemble me..."
14.
G|-----------------------------------------------------------------|
D|-----------------------------------------------------------------|
A|-2-2222222222222-------------------------------------------------|
E|-----------------2-2222222222222-3-3333333333333-3-3333333333333-|

"Disassemble me..."
15.
G|---------------------------------------------------------------|
D|---------------------------------------------------------------|
A|-2~-2-2-2-2-2-222----------------------------------------------|
E|------------------2~-2-2-2-2-2-222-3-33333333333333-3-3333333x-|

Outro
"Override command confirmed..."
16.
G|---------------------------------------------------------------------------------------------|
D|---------------------------------------------------------------------------------------------|
A|-2~---2x----2222-2-2---------------2-----2-----2~---2x----2222-2-2---------------2-----2-----|x2
E|---------------------333333333x------3-3---3-3---------------------333333333x------3-3---3-3-|

17.
G|----------------|
D|----------------|
A|-2-----2-----2x-|
E|---3-3---3-3----|


Please rate thanks!!


Lyrics:

Final forewarning has gone through the door
I have seen this before
Etch it in my spine; now you think "he's mine" for all time
Overproduce me  hoping for a dramatic change 
Map out your great escape

What's the connection?
The slightest deception between you and me
Man and machine
Disassemble me breathing at your knees
Your machine

Cut me open; you'll find what you've been looking for
Helpless in motion; arise to serve me once more

Relaxed movement brings too much pain to be seen

Override command confirmed Manual control returned
Your machine



+++++++++++++++++++++++++++++++++
| Raileff                       |
+++++++++++++++++++++++++++++++++
            

comments powered by Disqus
↑ Back to top | A Skylit Drive Bass for Ex Machina. Lyrics for acoustic guitar and electric guitar. Tablatures and chords are parodies/interpretations of the original songs. You may use it for private study, scholarship, research or language learning purposes only