» » »

Uthsober Uthsahe Tabs (ver.2)

Artists:  A B C D E F G H I J K L M N O P Q R S T U V W X Y Z # 

Uthsober Uthsahe Tabs (ver.2)

Artcell
Rating:
0/5 (0 votes)

Hard to play? Try these video lessons and learn fast.
                (Intro)
E------------------------------------------------------------------------------|
B-------------3--------------------------3--------------------------3----------|
G------0-------------0------------0-------------0-------------0-----------0----|
D---4-----4-------4-----4------4-----4-------4------4------4-----4------4----4-|
A-5-------------------------4---------------------------2----------------------|
E------------------------------------------------------------------------------|


E-------------0--------------|
B------3------------3--------|
G----0---0--------0----0-----|
D----------------------------|  x11
A----------------------------|
E-3--------------------------|


I think this is the best song of Artcell, in fact the extreme song.
            
Hard to play? Try these video lessons and learn fast. | Correct




comments powered by Disqus
↑ Back to top | Tablatures and chords are parodies/interpretations of the original songs. You may use it for private study, scholarship, research or language learning purposes only