>
 >
Bhul Jonmo

Bhul Jonmo Guitar Tabs

Artcell - Bhul Jonmo chords, tabs, tablatures, lyrics

Guitar lessons | Add/correct | Request | Top 50 tabs Artists:  A B C D E F G H I J K L M N O P Q R S T U V W X Y Z 0-9

Bhul Jonmo Guitar Tabs – Artcell

CD, Sheet music, Poster

Do you like Bhul Jonmo? Share with your friends now
Tabs
Band: ARTCELL


[b=full bend, h = hammer on, p = pull off, ~ = just hold the chord until it fades out]

Tune your guitar to Eb


Riff A: (play 4 times, 1st 2 times with a Lowgain distortion)
|------------------------------------------------------|
|------------------------------------------------------|
|------------------------------------------------------|
|-----------------5----5-5/9\7----7--------------------|
|--2----2---2---3-3----3-3/7\5----5--2------5------4---|
|--0----0---0-0----------------------0--3-3-3--2-2-2---|

Riff B:
|--------------------------------------------------------|
|--------------------------------------------------------|
|--------------------------------------------------------|
|----------------5----5-5/9\7----7-----------------------|
|-----2----2---3-3----3-3/7\5----5--2-2------------------|
|-0-0-0----0-0----------------------0-0-5-5-5-5-4-4-4-4--|

|--------------------------------------------------------|
|--------------------------------------------------------|
|--------------------------------------------------------|
|-------------------5----5-5/9\7----7--------------------|
|----2----2---2---3-3----3-3/7\5----5--2------5------4---|
|0-0-0----0---0-0----------------------0--3-3-3--2-2-2---|



Ami jonmate dekhechi....

Riff C:

|-------------------------------------------------------|
|-------------------------------------------------------|
|-------------------------------------------------------|
|-------------------5-----------------------------------|
|--------2----3--3--3----------5------------------0-2-3-|
|--0--0--0---------------3--3--3----2--2--0-2-3---------|


|-------------------------------------------------------|
|-------------------------------------------------------|
|-------------------------------------------------------|
|-------------------5-----------------------------------|
|--------2----3--3--3----------5----7--7--5--4----------|
|--0--0--0---------------3--3--3----5--5--3--2----------|

|-------------------------------------------------------|
|-------------------------------------------------------|
|-------------------------------------------------------|
|-------------------5-----------------------------------|
|--------2----3--3--3----------5------------------0-2-3-|
|--0--0--0---------------3--3--3----2--2--0-2-3---------|

|--------------------------------------|
|--------------------------------------|
|--------------------------------------|
|-------------------5------------------|
|--------2----3--3--3----------5---4---|
|--0--0--0---------------3--3--3---2---|

Shomoyee....

Riff D

|-------------------------------------------------------------|
|-------------------------------------------------------------|
|-------------------------------------------------------------|
|--------5----5----7-7--7--7---------9---9---9----------7--7--|
|--------3----3--5-5-5--5--5--10-10-10--10--10--9-9-9-9-9--9--|
|-------------------------------------------------------------|

|--------------------------------------------------------|
|--------------------------------------------------------|
|--------------------------------------------------------|
|------5----5----7---5--4-5-4--2-------------------------|
|--3-3-3----3--3-5---3--2-3-2--0-------2------2----------|
|----------------------------------0-0-0--0-0-0--0-0--0--|

|-------------------------------------------------------------|
|-------------------------------------------------------------|
|-------------------------------------------------------------|
|--------5----5----7-7--7--7---------9---9---9----------7--7--|
|--------3----3--5-5-5--5--5--10-10-10--10--10--9-9-9-9-9--9--|
|-------------------------------------------------------------|

|-------------------------------------------------------|
|-------------------------------------------------------|
|-------------------------------------------------------|
|------5----5----7---5--4-5-4--2------------------------|
|--3-3-3----3--3-5---3--2-3-2--0------------------------|
|-------------------------------------------------------|

The backing solo of Riff D:
|-----------------------------------7-8-7h8p8----7------------------------------|
|--5-8--5-8---7-10---7-10--8-10---------------10--10-8h10p8-7-8p7---7-----------|
|5-----5-----7------7-------------------------------------------------9---9-7-5-|
|-------------------------------------------------------------------------------|
|-------------------------------------------------------------------------------|
|-------------------------------------------------------------------------------|

|------------------------------------10-------8------7------5-2h3p2p0--------|
|----8-7h8p7p5----10-8h10p8p7----10\8------8\7---7\5---5\3---------------3---|
|-5------------7--------------9----------------------------------------------|
|----------------------------------------------------------------------------|
|----------------------------------------------------------------------------|
|----------------------------------------------------------------------------|

Repeat Riff C

Repeat Riff D

Riff E (3 times)
|---------------------------------------------------------|
|---------------------------------------------------------|
|---------------------------------------------------------|
|--5----5----7-7--7--7---------9---9---9----------7--7----|
|--3----3--5-5-5--5--5--10-10-10--10--10--9-9-9-9-9--9----|
|---------------------------------------------------------|

Bhul Jonmo tomake...
|-----------------------------------------------------------------------|
|-----------------------------------------------------------------------|
|-----------------------------------------------------------------------|
|------------------------------------7------------16--16--16------------|
|--7----------------9----------------5------------14--14--14------------|
|--5----------------7---------------------------------------------------|


Repeat Riff A (2 times)

Repeat Riff B


Riff F (4times):

|---------------------------------------------------------------------|
|---------------------------------------------------------------------|
|-------------------------------------------------------------------4-|
|------------------------9-----10-9-7-----7-----9-7-5-----5--4h5p4-2--|
|-------9-----10-9-7-7-7---7-7---------5-5---5-5-------3-3------------|
|--7-7---7-7----------------------------------------------------------|

Riff G:

|-----------------------------------------------------------------------------------|
|-----------------------------------------------------------------------------------|
|-----------------------------------------------------------------------------------|
|---------------------5--------5----------------------------------------------------|
|-2--------2----------3---3--3-3--3--3-3-5--------5---------4--------4--------0-2-3-|
|-0---0--0-0--0--0-0---------------------3---3--3-3--3--3-3-2---2--2-2--0-2-3-------|

|----------------------------------------------------------------|
|----------------------------------------------------------------|
|----------------------------------------------------------------|
|---------------------5--------5---------------------------------|
|-2--------2----------3---3--3-3--3--3-3-5--------5---------4~~--|
|-0---0--0-0--0--0-0---------------------3---3--3-3--3--3-3-2~~--|


Clean Part follows the following progression:

----0------------3------------0------------0------2----|
----0------------3------------1------------1------4----|
----0------------0------------2------------0------4----|
----2------------0------------2------------2------4----|
----2------------2------------0------------3------0----|
----0------------3-------------------------------------|
Em G Am C B



Em----------G---------Am----------C--B----Em
----Shopne monche melano jaina jibon
---------G---------Am--------C---G----B--Em
----Olik shopne bodlai na bastobota
----------G------Am-----C--B-----Em
shomoi bodlai bodlai ae jibon
-------G---------------C-----G---B------Em
Dhire fike hoye jai amar ae ostitto...........


the next plucking follows this progression: Em, C, G, D(or Dm?) and Am.



after the vocal sings, "....shomoi takiye dekho, poriborton bastobota.......aar" then:

Riff H: (4 times)

|---------------------------------------------------------------------------------------|
|---------------------------------------------------------------------------------------|
|-----------------------------------------------------------------------------------4---|
|----------------------------9----10--9--7-------7----9--7--5-------5------5-5-4-2-2----|
|-------9-----10--9--7--7-7-----7-----------5-5-----5-----------3-3-----3---------------|
|--7-7-----7---------------------------------------------------------------------------- |

Riff H backs up the following solo:

|------------------------------------------------------------------------------|
|--7------------5------5--7--8--------10r-8--8--10b-10b-10--8-10-8-7-8-7-5-7-5-|
|------------------------------------------------------------------------------|
|------------------------------------------------------------------------------|
|------------------------------------------------------------------------------|
|------------------------------------------------------------------------------|



|----------------------7----------5-----------------------------------------|
|---------13------------------------------10b-----10b-----10------7--8--10--|
|--9--------------7------7--5------5----------------------------------------|
|---------------------------------------------------------------------------|
|---------------------------------------------------------------------------|
|---------------------------------------------------------------------------|

|-------------------7h8p7----7-8-10-12-10-8-7--7-7--------------------------------------5--5-5-|
|--7h8p7---7-8-10---------10------------------------10--8-------10----12--10--8-----------------|
|-------9-------------------------------------------------7-7------7---------------5-5----------|
|-----------------------------------------------------------------------------------------------|
|-----------------------------------------------------------------------------------------------|
|-----------------------------------------------------------------------------------------------|


|-----12----12----14-15-14-12-14-12-10--------------------------------------------------------------------7-|
|--12----12----12-----------------------12-13--12--10-12--10--8-------10----12--10--8-------8----7-7-7-5-5--|
|---------------------------------------------------------------7-7------7------------5-5-----5-------------|
|-----------------------------------------------------------------------------------------------------------|
|-----------------------------------------------------------------------------------------------------------|
|-----------------------------------------------------------------------------------------------------------|

RIff I: (2 times)

|-------------------------------------------------------------------------------------|
|-------------------------------------------------------------------------------------|
|---------------------------6-----7--6--4--------4----6--4--2---------------------6---|
|-------6-----7--6--4--4-4-----4-----------2-2-----2-------------------7----6--4------|
|--4-4-----4------------------------------------------------------5-5-----5-----------|
|-------------------------------------------------------------------------------------|

Riff I backs up the following solo:

|-----------------16--17------19b-----19--------19----------17-------16-------17-17-16-14-14-21-|
|--17b-------19-----------------------------17------17--------------------------------------------|
|-----------------------------------------------------------19-----19-18----18-18-----------------|
|-------------------------------------------------------------------------------------------------|
|-------------------------------------------------------------------------------------------------|
|-------------------------------------------------------------------------------------------------|

|------16---17-16-14------14------------------------------------------------------------7-8-10-12-13-15-|
|--------------------15-15--15-14-15----15-14-12-----------------------------------8-10-----------------|
|-18-18--18--------------------------16---------13-14--13--11-13----------------9-11--------------------|
|---------------------------------------------------------------14-12--11-11-12-------------------------|
|-------------------------------------------------------------------------------------------------------|
|-------------------------------------------------------------------------------------------------------|

then play this:

|-----------------------------------------------------------------------|
|-----------------------------------------------------------------------|
|--------------------------------------------------------------------4--|
|-----------------------9-----10-9-7-----7-----9-7-5-----5--4h5p4-2-----|
|------9-----10-9-7-7-7---7-7---------5-5---5-5-------3-3---------------|
|--7-7---7-7------------------------------------------------------------|

|-------14-------15-14-12-12-12-19-------20-19-17------17--------19-17-15---------15-----14-15-14-12-19-|
|-12-12----12-12-------------------17-17----------19-19----19-19----------17-17-----17------------------|
|-------------------------------------------------------------------------------------------------------|
|-------------------------------------------------------------------------------------------------------|
|-------------------------------------------------------------------------------------------------------|
|-------------------------------------------------------------------------------------------------------|


|----------------------------------------------------------------------------------------|
|----------------------------------------------------------------------------------------|
|----------------------------------------------------------------------------------------|
|----------------------9----10-9-7-----7-----9-7-5---------------------------------------|
|------9----10-9-7-7-7---7-7-------5-5---5-5--------7-10----7-10----7-10----7-10----7-10-|
|--7-7---7-7---------------------------------------7-------7-------7-------7-------7-----|

|-------14-------15-14-12-12-12-19-------20-19-17--------17-------19-17-15-----15-------15---------15------15-------15-|
|-12-12----12-12-------------------17-17-----------19-19----19-19------------17-------17---------17------17-------17---|
|--------------------------------------------------------------------------16-------16---------16------16-------16-----|
|----------------------------------------------------------------------------------------------------------------------|
|----------------------------------------------------------------------------------------------------------------------|
|----------------------------------------------------------------------------------------------------------------------|

Riff J:

|--------------------------------------------------------|
|--------------------------------------------------------|
|--------------------------------------------------------|
|-----------------5--5-----------------------------------|
|--2--2-----------3--3--3--3-3-5---------4-----4-----4-5-|
|--0--0--0--0-0-----------------3--3--3--2--2--2--2--2-3-|

|-----------------------------------------------------|
|-----------------------------------------------------|
|-----------------------------------------------------|
|------------4----------5-------------5--4-5-4--------|
|------------2----------3--------5b---3--2-3-2--7--5--|
|--0--0--0-0----0--0-0----0--0-0----------------5--3--|

Riff K:

|------------------------------------------------|
|------------------------------------------------|
|------------------------------------------------|
|-5--5--x-7---9----9--4-4---5--------4-5-4-------|
|-3--3--x-5---7----7--2-2---3--3--3--2-3-2--7--5-|
|-------------------------------------------5--3-|

|-----------------------------------------------|
|-----------------------------------------------|
|-----------------------------------------------|
|-5--5--x-7---9----9--4-4---5--------5-4-2------|
|-3--3--x-5---7----7--2-2---3--3--3--3-2-0--5---|
|-------------------------------------------3---|

|------------------------------------------------|
|------------------------------------------------|
|------------------------------------------------|
|-5--5--x-7---9----9--4-4---5--------4-5-4-------|
|-3--3--x-5---7----7--2-2---3--3--3--2-3-2--7--5-|
|-------------------------------------------5--3-|

|--------------------------------------------------|
|--------------------------------------------------|
|--------------------------------------------------|
|-5--5--x-7---9----9--4-4---5----------------------|
|-3--3--x-5---7----7--2-2---3--3--3--3--3--3-3-3-3-|
|--------------------------------------------------|

Riff E (3 times)
|------------------------------------------------------|
|------------------------------------------------------|
|------------------------------------------------------|
|--5----5----7-7--7--7---------9---9---9----------7--7-|
|--3----3--5-5-5--5--5--10-10-10--10--10--9-9-9-9-9--9-|
|------------------------------------------------------|

Bhul Jonmo tomake...
|--------------------------------------------------------------|
|--------------------------------------------------------------|
|--------------------------------------------------------------|
|------------------------------------7------------16--16--16---|
|--7----------------9----------------5------------14--14--14---|
|--5----------------7------------------------------------------|


Repeat Riff A (2 times)

Repeat Riff B

(outro solo, sorry couldnt figure that out.)

End with:

|---------|
|---------|
|---------|
|-2-------|
|-2-------|
|-0-------|

any suggeson or correction or comment??? 





Comments


Popular Artcell tabs & chords
Onnoshomoy Bass Tabs
Ei Bristi Bheja Rate Chords
Amar Poth Chola Intro Tabs
Dukkho Bilash Tabs
Lin Tabs
Obosh Anubhutir Deyal Tabs
Obosh Onuvutir Deyal Intro Tabs
Oniket Prantor Intro Tabs
Rupak Intro Tabs
Ei Bristi Bheja Rate Ukulele


Song lyrics



↑ Back to top | Tablatures and chords are parodies/interpretations of the original songs. You may use it for private study, scholarship, research or language learning purposes only
© 2014 AZChords.com Contact us | Privacy policy | DMCA | Add/correct tabs | Request tabs | Top 50 tabs