» » »

Artcell, Uthsober Uthsahe Tabs (ver.1)

Artists:  A B C D E F G H I J K L M N O P Q R S T U V W X Y Z # 

Uthsober Uthsahe Tabs (ver.1)

Artcell Tabs
Rating:
0/5 (0 votes)
Uthsober Uthsahe lessons Tabs too difficult? Try these video lessons and learn fast
                (Intro)
-------------------------------------------------------------------------------
                        Uthsober Uthsahe - Artcell
-------------------------------------------------------------------------------

Tuning:E B G D A E

e|---------------------------------------------------------------------------|
B|-------------3--------------------------3-------------------------3--------|
G|------0-------------0------------0-------------0------------0----------0---|
D|---4-----4-------4-----4------4-----4-------4-----4------4-----4-----4---4-|
A|-5-------------------------4--------------------------2--------------------|
E|---------------------------------------------------------------------------|

e|-------------0-----------------|
B|------3------------3-----------|
G|---0-----0------0-----0--------|
D|-------------------------------|
A|-------------------------------|
E|-3-----------------------------|

Play this 11 times.Then at the time of 'janbe ami sudhu ami noi.........'


e|-------------0h2----------------------2h0-----------------------0----------|
B|------3------------3--------------3---------3-----3-------3-----------3----|
G|----2----2------------2-------2----------------2-------------0-----0-----0-|
D|-0-------------------------------------------------------------------------|
A|--------------------------4---------------------------2--------------------|
E|---------------------------------------------------------------------------|

e|-------------3--------------|
B|------3------------3--------|
G|---0-----0------0-----0-----|
D|----------------------------|
A|----------------------------|
E|-3--------------------------|

I feel this is the best best song of Artcell.In fact this is an extreme song & the most 
song I've ever listened.


| /  slide up
| \  slide down
| h  hammer-on
| p  pull-off
| ~  vibrato
| +  harmonic
| x  Mute note
===============================================================================
            

comments powered by Disqus
↑ Back to top | Artcell Tabs for Uthsober Uthsahe. Lyrics for acoustic guitar and electric guitar. Tablatures and chords are parodies/interpretations of the original songs. You may use it for private study, scholarship, research or language learning purposes only