» » »

On Your Side Tabs (ver.1)

Artists:  A B C D E F G H I J K L M N O P Q R S T U V W X Y Z # 

On Your Side Tabs (ver.1)

A Rocket To The Moon
Rating:
5/5 (4 votes)

Hard to play? Try these video lessons and learn fast.
                I'm back with another tab of chords that I don't know how to name properly, so I will 
them to you at the start. This song is Capo 3. The fret numbers are relative to the capo 
in the solo).

else and give you guys the wrong ones.

C?= E-3     G?= E-3      Em?= E-3    D?= E-3    A?= E-3-|
    B-3         B-3           B-3        B-3        B-3-|
    G-0         G-0           G-0        G-2        G-2-|
    D-2         D-0           D-2        D-0        D-2-|
    A-3         A-2           A-2        A-x        A-0-|
    E-x         E-3           E-0        E-x        E-x-|

This is how I play the intro

e|-----7------------5------------3---------------------------------------------|
B|--------0-------------0------------------------------------------------------|
G|----------0-------------0----------------------------------------------------|
D|-----------------------------------------------------------------------------|
A|-----7------------5------------3---------------------------------------------|
E|-----------------------------------------------------------------------------|
x4

Verse (picking):  C?, G?, Em?, D? x4

Bridge: C?, Em?, D? x2

Verse (picking):  C?, G?, Em?, D? x4

So cold, so cold= C?, D?

Chorus: Em?, A?, C?

Bridge is the same as intro pickings

Bridge: C?, Em?, D? x2

Most of the song goes on like that. Now I'm going to try to tab the solo.

e|--9s10--8-7--------------------------10s8--8s7---7s5--5s3-----7-7-7-7--5-3---|
B|-------------8---7-8-10-8-7-----------------------------------8-8-8-8--------|
G|----------------------------7------------------------------------------------|
D|-----------------------------------------------------------------------------|
A|-----------------------------------------------------------------------------|
E|-----------------------------------------------------------------------------|

e|--7776666666667777----3-5-5-3---5h7-3--7-8-7-5-7-10-14s15------------------|
B|--7777777777777777---------------------------------------------------------|
G|---------------------------------------------------------------------------|
D|---------------------------------------------------------------------------|
A|---------------------------------------------------------------------------|
E|---------------------------------------------------------------------------|


The chords for the solo are: C?, Em?, D?

There you go. Sorry everything's not spelled out word for word, but I don't really have 
for that. I just wanted to let people know the basics of how I play it.
            
Hard to play? Try these video lessons and learn fast. | Correct




comments powered by Disqus
↑ Back to top | Tablatures and chords are parodies/interpretations of the original songs. You may use it for private study, scholarship, research or language learning purposes only