» » »

Like We Used To Tabs (ver.1)

Artists:  A B C D E F G H I J K L M N O P Q R S T U V W X Y Z # 

Like We Used To Tabs (ver.1)

A Rocket To The Moon
Rating:
4/5 (4 votes)

Hard to play? Try these video lessons and learn fast.
                your own judgment, because rating my works would really allow me to check on the parts 
which i need to improve and whatnot... :D

INTRO:
    D        D/F#   D/G     D/A      D        D/F#    D/G - D/A
E|--0h2--2-|-0--0-|-----0-|-0h2-0-|-----0-|---3p2p0-|----0----|
B|------3--|---3--|----3--|-------|--3----|-3-------|-3-----3-|
G|---------|------|-2h4---|-------|----2--|--0------|---2-----|
D|--0------|------|-------|-------|--0----|---------|---------|
A|---------|------|-------|-0-----|-------|---------|-------0-|
E|---------|-2----|-3-----|-------|-------|-2-------|-3-------|

E|--------------------------------|
B|--2(let it ring)/3(let it ring)-|
G|--------------------------------|
D|--------------------------------|
A|--------------------------------|
E|--------------------------------|


(let all bass strings ring; that is, E,A,and D strings)
(verse enters DIRECTLY after the 2 slide to 3 at B string)

VERSE:

D - F#m - Gm(hold)- Bm - A - Gm (2x)

PRE-CHORUS:

Em - D - A (2x), hold A on 2nd time

CHORUS:

D - F#m - Gm - Bm - A

D - F#m - Bm(strum once) - A(strum once) - Gm(strum once)

POST-CHORUS/INTERLUDE:
   D           D/F#      D/G      Bm  - A
E|-2--2-3-5-|-0--2-3-5-|-----0--|--2--|--0--|
B|---3------|---3------|-3-3----|-----|-----|
G|----------|----------|--0-0---|-----|-----|
D|-0--------|----------|--------|-----|-----|
A|----------|----------|--------|--2--|--0--|
E|----------|-2--------|-3------|-----|-----|

   D           D/F#      D/G      Gm(or Bm)- A
E|-2--2-3-5-|-0--2-3-5-|-----0--|-----|-----|
B|---3------|---3------|-3-3----|--0--|-----|
G|----------|----------|--0-0---|-----|--2--|
D|-0--------|----------|--------|-----|-----|
A|----------|----------|--------|--2--|--0--|
E|----------|-2--------|-3------|-----|-----|


(the one above is the lead, while the one below is the alternate rhythm version)

D - F#m - Gm - Bm - A x2

BRIDGE:

Gm - D(or Bm, im not rly sure, both sounds good XD) - A

(imma use power chords for ease; just use normal chords from other compositions if you 
either 1:dont like power chords, 2:can't do power chords, or 3:want normal, full sounding 
chords than awesome, easy-to-shift power chords :D, either of the two is good)

ENDING:

Bm - A - Gm (x3)

(hold on 3rd Gm)

PROGRESSION:
INTRO
VERSE
PRE-CHORUS
CHORUS
POST-CHORUS
VERSE
PRE-CHORUS
CHORUS
BRIDGE
CHORUS
ENDING
OUTRO(same as INTRO)

and by ending, i mean the "does he do all these things... will he..." until "things.."

outro starts after "to" on the line "like we used to"


please rate, huh :D

*UPDATES*
>tweaked the intro..
(credits to ebud27 for pointing out the error XD)
>tweaked the intro again
(changed the 3p2h3 to 3p2p0 at D/F#)
>labeled the chords for ease of finger positioning
            
Hard to play? Try these video lessons and learn fast. | Correct




comments powered by Disqus
↑ Back to top | Tablatures and chords are parodies/interpretations of the original songs. You may use it for private study, scholarship, research or language learning purposes only