» » »

A Rocket To The Moon, Baby Blue Eyes Tabs (ver.1)

Artists:  A B C D E F G H I J K L M N O P Q R S T U V W X Y Z # 

Baby Blue Eyes Tabs (ver.1)

A Rocket To The Moon Tabs
 Rating:
4.7/5 (12 votes)
Baby Blue Eyes lessons Tabs too difficult? Try these video lessons and learn fast
                
Tuning: Standard
CAPO 4

The strumming is easy, so I'll only include the chords themselves for the verse


e|-----------------------------3--3--3-3-3-3-3-3-3-3--3------------------------|
B|-----------------------------3--3--3-3-3-3-3-3-3-3--3------------------------|
G|--2h4----2p0-----------------0--0--0-0-0-0-0-0-0-0--0------------------------|
D|-----------------------------0--0--0-0-0-0-0-0-0-0--0------------------------|
A|-----------------------------2--2--2-2-2-0-0-0-0-0--0------------------------|
E|-----------------------------3--3--3-3-3-3-3-3-3-3--3------------------------|

e|--3--3--3-3-3-3-3-3-3-3--3-----3--3--3-3-3---3--3--3--3-3---3--------------|
B|--3--3--3-3-3-3-3-3-3-3--3-----3--3--3-3-3---3--3--3--3-3---3--------------|
G|--0--0--0-0-0-0-0-0-0-0--0-----0--0--0-0-0---0--0--0--0-0---0--------------|
D|--1--1--1-1-1-1-1-1-1-1--1-----0--0--0-0-0---0--0--0--0-0---0h2------------|
A|--2--2--2-2-2-0-0-0-0-0--0-----2--2--2-2-2---0--0--0--0-0---3--------------|
E|--x--x--x-x-x-x-x-x-x-x--x-----0--0--0-0-0---x--x--x--x-x---x--------------|


  My eyes are no good blind without her, the way she moves I never doubt her
e|--------------3------------------------------------3-----------------------|
B|--------------3------------------------------------3-----------------------|
G|--------------0------------------------------------0-----------------------|
D|--------------0------------------------------------0-----------------------|
A|--------------2------------------------------------0-----------------------|
E|--------------3------------------------------------2-----------------------|

    when she talks she somehow creeps into my dreams.

e|----------3---------------------3-----------3--------3---------------------|
B|----------3---------------------3-----------3--------3---------------------|
G|----------0---------------------0-----------0--------0---------------------|
D|----------0---------------------0-----------2--------0---------------------|
A|----------2---------------------0-----------3--------3---------------------|
E|----------0---------------------x-----------x--------x---------------------|

She's a doll, at catch, a winner, I'm in love and no beginner could ever

e|-------3---------------------------------3---------------------------------|
B|-------3---------------------------------3---------------------------------|
G|-------0---------------------------------0---------------------------------|
D|-------0---------------------------------0---------------------------------|
A|-------2---------------------------------0---------------------------------|
E|-------3---------------------------------2---------------------------------|

grasp or understand just what she means.

e|--3-------------3-----------------3------------3---------------------------|
B|--3-------------3-----------------3------------3---------------------------|
G|--0-------------0-----------------0------------0---------------------------|
D|--0-------------0-----------------2------------0---------------------------|
A|--2-------------0-----------------3------------3---------------------------|
E|--0-------------x-----------------x------------x---------------------------|


The chorus is the same as the intro, execpt at the end of the second playthough add..


And I may feel like a fool, but I'm the only one dancin with you

e|----3---------------------------------2------------------------------------|
B|----3---------------------------------3------------------------------------|
G|----0---------------------------------0------------------------------------|
D|----2---------------------------------0------------------------------------|
A|----0---------------------------------0------------------------------------|
E|----x---------------------------------x------------------------------------|

I believe the rest of the song can be played using the same chords.


| /  slide up
| \  slide down
| h  hammer-on
| p  pull-off
| ~  vibrato
| +  harmonic
| x  Mute note
===============================================================================
            
Submit corrections

comments powered by Disqus
↑ Back to top | A Rocket To The Moon Tabs for Baby Blue Eyes. Lyrics for acoustic guitar and electric guitar. Tablatures and chords are parodies/interpretations of the original songs. You may use it for private study, scholarship, research or language learning purposes only