>
 >
Annabelle

Annabelle Guitar Tabs

A Rocket To The Moon - Annabelle chords, tabs, tablatures, lyrics

Guitar lessons | Add/correct | Request | Top 50 tabs Artists:  A B C D E F G H I J K L M N O P Q R S T U V W X Y Z 0-9

Annabelle Guitar Tabs – A Rocket To The Moon

CD, Sheet music, Poster

Do you like Annabelle? Share with your friends now
ChordsTabsUkulele
Intro: (*=palm muted)
guitar 1:
e|------------------------------------------------|
b|------------------------------------------------|
g|-7-6---------7-7-----7-6--------------6-6-------|
d|-----9-7-9---------9-----9-7-9---7-7------9-9-7-|
a|------------------------------------------------|
e|------------------------------------------------|

guitar 2:
e|-----------------------|---------------------|
b|-----------------------|---------------------|
g|-----------------------|---------------------|  listen to the music
d|-----7-----------------|-7-------------------| to figure out the strumming
a|-----5----7----4----2--|-5----7----2----4----|
e|----------5----2----0--|------5----0----2----|

Verse:
guitar 1:
e|----|
b|----|
g|----|
d|-7--| (on the beginning of the part 3 of the verse)
a|-5--|
e|----|

guitar 2: part 1                    part 2
e|---------------------------------|---------------------------------|
b|---------------------------------|---------------------------------|
g|---------------------------------|---------------------------------|
d|-7-7-7-7-------------------------|-7-7-7-7-------------------------|
a|-5-5-5-5-7-7-7-7-4-4-4-4-2-2-2-2-|-5-5-5-5-7-7-7-7-2-2-2-2-4-4-4-4-|
e|---------5-5-5-5-2-2-2-2-0-0-0-0-|---------5-5-5-5-0-0-0-0-2-2-2-2-|
   * * * * * * * * * * * * * * * *   * * * * * * * * * * * * * * * *

part 3
e|---------------------------------|---------------------------------|
b|---------------------------------|---------------------------------|
g|---------------------------------|---------------------------------|
d|-7-7-7-7-------------------------|-7-7-7-7-7-7-7-7-9-9-9-9-9-9-9-9-|
a|-5-5-5-5-7-7-7-7-4-4-4-4-2-2-2-2-|-5-5-5-5-5-5-5-5-7-7-7-7-7-7-7-7-|
e|---------5-5-5-5-2-2-2-2-0-0-0-0-|---------------------------------|
   * * * * * * * * * * * * * * * * * * * * * * * * * * * * *

Repeat Intro (guitar 2)

e|---|
b|---|
g|---|
d|-7- 16x
a|-5-
e|---|

Chorus:
e|--------------------|   |-----------------------------------------|
b|--------------------|   |-----------------------------------------|
g|--------------------|   |-----------------------------------------|
d|-------------7------|3x |-----------------|     |-7-7-7-7-7-7-7-7-|
a|----2----4---5----7-|   |-9-9-9-9-9-9-9-9-| 2x  |-5-5-5-5-5-5-5-5-|
e|----0----2--------5-|   |-7-7-7-7-7-7-7-7-|     |-----------------|
(listen for the strumming)

Repeat Intro (guitar 1 and 2)

Repeat Verse

Repeat Intro (guitar 2)

e|---|
b|---|
g|---|
d|-7- 16x
a|-5-
e|---|

Repeat Chorus

Bridge:
e|---------------|
b|---------------|
g|---------------|
d|---------------|
a|-7-7-7-7-7-7-7-|
e|-5-5-5-5-5-5-5-|

e|---------------------------------------------------------|
b|---------------------------------------------------------|
g|---------------7--7--7-7-7-7---------------9--9--9-9-9-9-|
d|-4--4--4-4-4-4-7--7--7-7-7-7-7--7--7-7-7-7-9--9--9-9-9-9-| 2x
a|-4--4--4-4-4-4-5--5--5-5-5-5-7--7--7-7-7-7-7--7--7-7-7-7-|
e|-2--2--2-2-2-2---------------5--5--5-5-5-5---------------|

e|-----------------------------------------|
b|-----------------------------------------|   
g|-----------------------------------------|
d|-----------------|     |-7-7-7-7-7-7-7-7-|
a|-9-9-9-9-9-9-9-9-| 2x  |-5-5-5-5-5-5-5-5-|
e|-7-7-7-7-7-7-7-7-|     |-----------------|

Repeat Chorus 2x

Repeat Intro





Comments


Popular A Rocket To The Moon tabs & chords
Annabelle Chords
Baby Blue Eyes 3 Chords
Baby Were Invincible 2 Chords
Just Another One Chords
Like We Used To 2 Chords
Not A Second To Waste Chords
Wherever You Go Chords
Oh, Dakota Tabs
Wherever You Go Tabs
Dakota Ukulele


Song lyrics



↑ Back to top | Tablatures and chords are parodies/interpretations of the original songs. You may use it for private study, scholarship, research or language learning purposes only
© 2014 AZChords.com Contact us | Privacy policy | DMCA | Add/correct tabs | Request tabs | Top 50 tabs