>
 >
Reckless Serenade 1

Reckless Serenade 1 Guitar Tabs

Arctic Monkeys - Reckless Serenade 1 chords, tabs, tablatures, lyrics

Guitar lessons | Add/correct | Request | Top 50 tabs Artists:  A B C D E F G H I J K L M N O P Q R S T U V W X Y Z 0-9

Reckless Serenade 1 Guitar Tabs – Arctic Monkeys

CD, Sheet music, Poster

Do you like Reckless Serenade 1? Share with your friends now
Bass TabsBass Tabs v2Bass Tabs v3ChordsChords v2Chords v3Chords v4TabsTabs v2Tabs v3UkuleleUkulele v2
----------------------------------------------------------------------------

Reckless Serenade - Arctic Monkeys
----------------------------------------------------------------------------


Tuning: Standard
____________________________________________________

Tab starts at 0:36

e|--7------3------7------------7-------------------|
B|-7-7-3--3-3-7--7-7-5--3-5-7---7--5-3-8-7--5-3-5--|
G|-------------------6--4-6-7----7-6-4-9-7--6-4-6--|
D|-------------------------------------------------|
A|-------------------------------------------------|
E|-------------------------------------------------|

0:51
e|--3---5---3---5---5---5---5-----5-7-5---|
B|-5-5-7-7-5-5-7-7-3-3-7-7-3-3-7-7-7-7-7--|
G|----------------------------------------| x4
D|----------------------------------------|
A|----------------------------------------|
E|----------------------------------------|

1:22
e|-----3------7------------7-------------------|
B|-3--3-3-7--7-7-5--3-5-7---7--5-3-8-7--5-3-5--|
G|---------------6--4-6-7----7-6-4-9-7--6-4-6--|
D|---------------------------------------------|
A|---------------------------------------------|
E|---------------------------------------------|

1:36
e|--3---5---3---5---5---5---5-----|
B|-5-5-7-7-5-5-7-7-3-3-7-7-3-3-6~-|
G|--------------------------------| 
D|--------------------------------|
A|--------------------------------|
E|--------------------------------|

1:44
e|-7-7-7-7-7--4-4-4-4-4--3-3-3--5-5-5--10--|
B|-7-7-7-7-7--5-5-5-5-5--3-3-3--5-5-5--10--|
G|-7-7-7-7-7--4-4-4-4-4--4-4-4--6-6-6--11--|
D|-----------------------------------------|
A|-----------------------------------------|
E|-----------------------------------------|

1:52
e|-2-2-2-2-2--5--7-7--2--7-7-7-7-7--5--2-2-2-0-2--|
B|-3-3-3-3-3--3--7-7--3--8-8-8-8-8--3--3-3-3-3-3--|
G|------------------------------------------------| x2
D|------------------------------------------------|
A|------------------------------------------------|
E|------------------------------------------------|

2:06
e|--------9------------------9------------------9----------------------|
B|-7\10-12-12-10--10--7\10-12-12-10--10--7\10-12-12-10--10-8-7-----7---|
G|--------------11-----------------11-----------------11--9---7-9-7-7--| x2
D|---------------------------------------------------------------------|
A|---------------------------------------------------------------------|
E|---------------------------------------------------------------------|

2:21
e|----------------|
B|-(8)-7-----7-8--|
G|--(7)-7-9-7-7-7-| x3 excluding part in brackets
D|----------------|
A|----------------|
E|----------------|

Solo - I haven't learnt this yet, you can carry on playing the previous part 2 more times instead.

Outro 2:32
e|--------------------------------------|
B|-8-8-8-8-8-8-8-8--8-8-8-8-8-8-8-8--7--|
G|-9-9-9-9-9-9-9-9--7-7-7-7-7-7-7-7--7--|
D|--------------------------------------|
A|--------------------------------------|
E|--------------------------------------|


************************************

| /   slide up
| \   slide down
| h   hammer-on
| p   pull-off
| ~   vibrato
| +   harmonic
| x   Mute note
| b   Bend
| pb  Pre-bend
| br  Bend release
| pbr Pre-bend release
| brb Bend release bend

************************************





Comments


Popular Arctic Monkeys tabs & chords
Bad Thing Bass Tabs
Brianstorm 5 Bass Tabs
Brick By Brick Bass Tabs
Crying Lightning 5 Bass Tabs
From The Ritz To The Rubble Bass Tabs
Teddy Picker 3 Bass Tabs
Thats Where Youre Wrong Bass Tabs
No 1 Party Anthem 1 Chords
Fake Tales Of San Francisco Tabs
From The Ritz To The Rubble Tabs


Song lyrics



↑ Back to top | Tablatures and chords are parodies/interpretations of the original songs. You may use it for private study, scholarship, research or language learning purposes only
© 2014 AZChords.com Contact us | Privacy policy | DMCA | Add/correct tabs | Request tabs | Top 50 tabs