» » »

Old Yellow Bricks Tabs (ver.1)

Artists:  A B C D E F G H I J K L M N O P Q R S T U V W X Y Z # 

Old Yellow Bricks Tabs (ver.1)

Arctic Monkeys
Rating:
0/5 (0 votes)

Hard to play? Try these video lessons and learn fast.
                All tabs for Old Yellow Bricks are really good but all are wrong at chorus and got some lost
and extra notes that should or not be there so I made this and its almost 100% acurate,
included what guitar 2 plays so if you like more 1 or 2 or you got a friend you can play
both guitars.

Old Yellow Bricks by Arctic Monkeys.

Intro:

e|----------------------------------|
B|----------------------------------| Guitar 1 x7
G|----------------------------------|
D|----------------------------------| Guitar 2 x5 (starts when alex starts
A|---------7-7-7-778-8-8-885-5-5-55-| singing)
E|-5-5-5-55-------------------------|

Chorus:

Guitar 1:

e|-----------------------------|    e|---|
B|--6--8--10-----8-------------|    B|-6-|
G|--7--9--10-----9-------------|    G|-7-|
D|--7--9--10-----9-------------| x3 D|-7-|
A|--5--7--8------7-------------|    A|-5-|
E|-----------------------------|    E|---|

e|----------------------------------|
B|----------------------------------| Guitar 1 x2
G|----------------------------------|
D|----------------------------------| Guitar 2 x4
A|---------7-7-7-778-8-8-885-5-5-55-|
E|-5-5-5-55-------------------------|

Guitar 1 does this while guitar 2 keeps doing Intro:

Verse 1:

e|---------|
B|-5-6-5-4-|
G|---------| x8
D|---------|
A|---------|
E|---------|

Chorus:

Guitar 1:

e|-----------------------------|
B|--6--8--10-----8-------------|
G|--7--9--10-----9-------------|
D|--7--9--10-----9-------------| x3
A|--5--7--8------7-------------|
E|-----------------------------|

Verse 2:

Guitar 1:

e|---------------|   e|--------------|
B|---------------|   B|--------------|
G|---------------|   G|--------------|
D|---910---------|x4 D|---910--------|
A|-7----57-2-3-5-|   A|-7----57----3-|
E|---------------|   E|---------555--|

Guitar 1 does Solo while Gutiar 2 repeats Verse 1 8 times:

There are some slides before this but I couldnt figure them out.

e|-----------------------|
B|-121311213121312131213-| REPEAT
G|-----------------------|
D|-----------------------|
A|-----------------------|
E|-----------------------|

Chorus:
           GUITAR 1:                                GUITAR 2:
e|-----------------------------|    e|---|      e|---------|
B|--6--8--10-----8-------------|    B|-6-|      B|-5-6-5-4-|
G|--7--9--10-----9-------------|    G|-7-|      G|---------|
D|--7--9--10-----9-------------| x8 D|-7-|      D|---------| x8
A|--5--7--8------7-------------|    A|-5-|      A|---------|
E|-----------------------------|    E|---|      E|---------|

Both Guitars:

e|----------------------------------|
B|----------------------------------|
G|----------------------------------|
D|----------------------------------|x2
A|---------7-7-7-778-8-8-885-5-5-55-|
E|-5-5-5-55-------------------------|

Outro:

Guitar 1:

e|-----------------------|
B|-121311213121312131213-| REPEAT
G|-----------------------|
D|-----------------------|
A|-----------------------|
E|-----------------------|

Guitar 2:
e|---------|    e|-------------|
B|-5-6-5-4-|    B|-5-6-5-4-5~~~|
G|---------| x8 G|-------------|
D|---------|    D|-------------|
A|---------|    A|-------------|
E|---------|    E|-------------|

|-------------|
| ~ Hold Note |
| h Hammer on |
| p Pull off  |
| / Slide     |
|-------------|
            
Hard to play? Try these video lessons and learn fast. | Correct




comments powered by Disqus
↑ Back to top | Tablatures and chords are parodies/interpretations of the original songs. You may use it for private study, scholarship, research or language learning purposes only