» » »

Brianstorm Tabs (ver.1)

Artists:  A B C D E F G H I J K L M N O P Q R S T U V W X Y Z # 

Brianstorm Tabs (ver.1)

Arctic Monkeys
Rating:
0/5 (0 votes)

Hard to play? Try these video lessons and learn fast.
                Arctic Monkeys


I'm sure this tab is 100% correct, its made by other tabs over there and a contribution of mine.
 

Intro

Guitar 2
|------------------------------------|
B|-----------------------------------|
G|-----------------------------------|    
D|-----------------------------------|     
A|-----------------------------------|
E|-111111111111111111111111111111111-|

Guitar 1

Does some scratching and then:
e|---------------------------------------|
B|---------------------------------------|
G|---------------------------------------|    
D|---------------------------------------|     
A|-----8888888-8888-8888--8888-8888------|
E|------------9---------9----------9-----|

Then (guitar 2 stops here)
e|-----------------------------------|
B|-----------------------------------|
G|-----------------------------------|    
D|-----------------------------------|     
A|888-4-3---444-6-777-10-------------|
E|--------4--------------------------|



Verse

Both guitars

e|-------------------------|
B|-------------------------|
G|-10--6-5--6-6-8-9--12----|    
D|-10--6-5--6-6-8-9--12----|     
A|--8--4-3--4-4-6-7--10----|
E|-------------------------|

“Brian...”
Guitar 2
e|-----------------------|
B|-----------------------|
G|-----------------------|    
D|-----------------------|     
A|--8--4-3--4-4-6-7------|
E|-----------------------|

then both guitars continue doing the verse part



“And i wonder...”

Guitar 1: verse part
Guitar 2
e|------------------------------|
B|------------------------------|
G|-10-10--10-—10-10--10—-10-10--|    
D|-10-10--10—-10-10--10--10-10--|     
A|--8--8---8---8--8---8---8--8--|
E|------------------------------|


Bridge

Guitar 1 (actually it's the bass)
e|--------------------------|
B|--------------------------|
G|--------------------------|    
D|-333----------------------|     
A|----4-333---44-66-77-1010-| x3
E|----------4---------------|

e|--------------|
B|--------------|
G|--------------| 
D|-333----------|     
A|----4-333---3-|
E|----------4---| (guitar scratches)




Verse 2
“some want to kiss some want to kick you..”

both guitars: verse part


“She’ll be saying ‘use me’... ”

Guitar 1: verse part

Guitar 2
e|------------------------------|
B|----------------13-11---------| (x3)
G|-10-10-10-10-10-------13-12-13|    
D|------------------------------|     
A|------------------------------|
E|------------------------------|

e|--------------------------------|
B|--------------------------------|
G|-10-10-10-10-10--9-9-9-9-9-9-9-9|    
D|--------------------------------|     
A|--------------------------------|
E|--------------------------------|



“I doubt its your style...”

Guitar2
e|----------------|
B|----------------|
G|----------------|    
D|----------------|     
A|-3-----3-3----4-| x2
E|--4-1-----4-1---|


“Out to acquire...”

Guitar 1
e|---------------|
B|---------------|
G|-555555555555--|    
D|-555555555555--|     
A|-333333333333--|
E|---------------|

Guitar2
e|----------------|
B|----------------|
G|----------------|    
D|----------------|     
A|-3-----3-3------| 
E|--4-1-----4-1-0-|

“...You are the unforcasted storm”

both guitars
e|---------------|
B|---------------|
G|-999999999999--|    
D|-999999999999--|     
A|-777777777777--|
E|---------------|


Bridge 2

Guitar1
e|---------------------------------------------------------------|
B|---------------------------------------------------------------|
G|---------------------10-10--10-—10-10--11—-10-10--10-—10-10--11|    
D|---------------------10-10--10—-10-10--11--10-10--10—-10-10--11|     
A|----------------------8--8---8---8--8---9---8--8---8---8--8---9|
E|---------------------------------------------------------------|
Guitar2                                                           x2
e|---------------------------------------------------------------|
B|---------------------------------------------------------------|
G|(only bass until here|----------------------------------------|    
D|---------------------v-----------------------------------------|     
A|---------44-33--44-3-------------------------------------------|
E|11111-44------44-----111111111111111111111111111111111111111111|


Guitar1
e|---------------------|
B|---------------------|
G|-10-10--10-—10-10--11|
D|-10-10--10—-10-10--11|     
A|--8--8---8---8--8---9|    
E|---------------------|

Guitar2                   <--after a while doing that guitar 2 ends on:
e|---------------------|               e|--------------------------|
B|---------------------|               B|--------------------------|
G|---------------------|               G|--------------------------| 
D|---------------------|               D|--------------------------|
A|---------------------|               A|----------------------44-3|
E|-11111111111111111111|               E|11111111111111111111-4----|



Verse 3
 
“calm collected and commandin’...”
Drum Solo

“...Thunder!...”

Guitar 1: verse part

Guitar 2
e|------------------------------|
B|----------------13-11---------| (x3)
G|-10-10-10-10-10-------13-12-13|    
D|------------------------------|     
A|------------------------------|
E|------------------------------|

e|----------------------------------|
B|----------------------------------|
G|-10-10-10-10-10--9-9-9-9-9-9-9-9~~|    
D|----------------------------------|     
A|----------------------------------|
E|----------------------------------|



Outro

Guitar 2
e|-----------------------------------|
B|-----------------------------------|
G|-----------------------------------|    
D|-----------------------------------|     
A|-----------------------------------|
E|-111111111111111111111111111111111-|

Guitar 1
e|---------------------------------------------------|
B|---------------------------------------------------|
G|---------------------------------------------------|    
D|---------------------------------------------------|     
A|-8888888-8888-8888--8888-8888--8888-8888888-8~-----|
E|--------9---------9----------9---------------------|
            
Hard to play? Try these video lessons and learn fast. | Correct




comments powered by Disqus
↑ Back to top | Tablatures and chords are parodies/interpretations of the original songs. You may use it for private study, scholarship, research or language learning purposes only